» » »

Hillsongs, Ever More Tabs (ver.1)

Artists:  A B C D E F G H I J K L M N O P Q R S T U V W X Y Z # 

Ever More Tabs (ver.1)

Hillsongs Tabs
 Rating:
4/5 (4 votes)
Ever More lessons Tabs too difficult? Try these video lessons and learn fast
                Electric Guitar (Lead Guitar)
Tuning - E A D G B E

(^)-Bend
(*)-Slide

Intro: (Play 4 times)

--7---------7----|
---8-7^8^7---8-7-|
----------9------|
-----------------|
-----------------|
-----------------|

Verse:

------------3-----10------5---|
-----------3-----10------5----|
----------5-----12------7-----|
---2-----5-----12------7------|
--2---2*3---9*10----3*5-------|
-0----------------------------|

Refrain:

------------------------------|
------------------------------|
------------------------------|
-9--9--7-7-12-12-10-10--------|
--10-10-9-9-14-14-12-12-------|
------------------------------|

Chorus:

------------------|
------------------|
-----7---5--9-7---|
-5---7---5--9-7---|
-5---5---3--7-5---|
-3----------------|

I didn't have enough time to listen to the Instrumental
But I'll try to post it
            
Submit corrections

comments powered by Disqus
↑ Back to top | Hillsongs Tabs for Ever More. Lyrics for acoustic guitar and electric guitar. Tablatures and chords are parodies/interpretations of the original songs. You may use it for private study, scholarship, research or language learning purposes only