>
 >
Draw Me Close To You

Draw Me Close To You Guitar Tabs

Hillsongs - Draw Me Close To You chords, tabs, tablatures, lyrics

Guitar lessons | Add/correct | Request | Top 50 tabs Artists:  A B C D E F G H I J K L M N O P Q R S T U V W X Y Z 0-9

Draw Me Close To You Guitar Tabs – Hillsongs

CD, Sheet music, Poster

Do you like Draw Me Close To You? Share with your friends now
ChordsChords v2Chords v3TabsUkulele


Capo on 3rd Fret

Intro:
Am7-Bm7-CM7- Am7
G-Cadd9 (2x)

E:|--------0------2h5p2------3-------5h7p5--|
B:|-----0h1------3----------5-------5-------|
G:|----0--------2----------4-------5--------|
D:|---2--------4----------5-------5---------|
A:|--0--------2----------3-------7----------|
E:|-----------------------------5-----------|

E:|-----------------------|
B:|----------0-------3----|
G:|------2-------2-----0--|
D:|----0---0---0---0------|
A:|-----------------------|
E:|--3--------------------|

E:|--------3-------------------|
B:|--0h1-------1------0h1p0----|
G:|------0---0-0----0-------0--|
D:|----------------------------|
A:|--3-------------------------|
E:|----------------------------|

E:|-----------------------|
B:|----------0-------3----|
G:|------2-------2-----0--|
D:|----0---0---0---0------|
A:|-----------------------|
E:|--3--------------------|

E:|------------------3--|
B:|--0h1p0---0h1p0------|
G:|--0-----0-0-----0----|
D:|---------------------|
A:|--3-------3----------|
E:|---------------------|


Verse 1:
G-C-D
G-D/F#-C
Em-C

E:|-----------------------|
B:|----------0-------3----|
G:|------2-------2-----0--|
D:|----0---0---0---0------|
A:|-----------------------|
E:|--3--------------------|

E:|--------3--------------|
B:|--0h1-------1---1p0-1--|
G:|------0---0------------|
D:|-----------------------|
A:|--3--------------------|
E:|-----------------------|

E:|------5-------5----|
B:|--3-------3-----3--|
G:|----2---2----------|
D:|--0----------------|
A:|-------------------|
E:|-------------------|

E:|-----------------------|
B:|----------0-------3----|
G:|------2-------2-----0--|
D:|----0---0---0---0------|
A:|-----------------------|
E:|--3--------------------|

E:|----------0---------3------------------|
B:|------3-------0h1-------1-----0h1p0----|
G:|--2-----2---------0---0-----0-------0--|
D:|----0----------------------------------|
A:|--------------3------------------------|
E:|--2------------------------------------|

E:|----------0--------------0-----------3----|
B:|------0----------------------0h1p0--------|
G:|----0---0-----0---0----0---0-------0---0--|
D:|----------------0-------------------------|
A:|---------------------3--------------------|
E:|--0---------------------------------------|


Verse 2: (Do verse 1)


Prechorus:
G -C-D

E:|-----------------------|
B:|----------0-------3----|
G:|------2-------2-----0--|
D:|----0---0---0---0------|
A:|-----------------------|
E:|--3--------------------|

E:|--------3---5--|
B:|--0h1-------3--|
G:|------0-----2--|
D:|------------0--|
A:|--3------------|
E:|---------------|


Chorus: 
CM7-Bm7-Em
Am7-D

Guitar 1:
E:|--3----------------------2--------0---|
B:|--5----------------------3--------0---|
G:|--4----------------------2--------0---|
D:|--5----------------------4--------2---|
A:|--3----------------------2--------2---|
E:|----------------------------------0---|
Guitar 2:
E:|--5/7---7-7-7~------5\3--2--3-2-------|
B:|--------------------------------3-3---|
G:|--------------------------------------|
D:|--------------------------------------|
A:|--------------------------------------|
E:|--------------------------------------|

Guitar 1:
E:|--0---------------------2--------------------|
B:|--1---------------------3--------------------|
G:|--0---------------------2--------------------|
D:|--2---------------------0--------------------|
A:|--0------------------------------------------|
E:|---------------------------------------------|
Guitar 2:
E:|----5/7--7\5-5\3--3/5-----7/8-10\8-7---------|
B:|-------------------------------------8-8/10--|
G:|---------------------------------------------|
D:|---------------------------------------------|
A:|---------------------------------------------|
E:|---------------------------------------------|


[Repeat Verse 1]

[Repeat Verse 2]

[Repeat Prechorus]

Chorus 2:

G - D -  Cadd9
G - D -  Cadd9-D
G - D -  Cadd9-D
Cadd9 - D -  G        [2x]

Cadd9 - D -  G (repeat until ending)





Comments


Popular Hillsongs tabs & chords
Believe Chords
Believe 2 Chords
Found Chords
With Us Chords
From God Above 1 Tabs
God One And Only Tabs
Let Creation Sing Tabs
Mighty To Save 2 Tabs
What The World Will Never Take 1 Tabs
Great Is The Lord Ukulele


Song lyrics



↑ Back to top | Tablatures and chords are parodies/interpretations of the original songs. You may use it for private study, scholarship, research or language learning purposes only
© 2014 AZChords.com Contact us | Privacy policy | DMCA | Add/correct tabs | Request tabs | Top 50 tabs