» » »

Hillsongs, Desert Song Bass tabs (ver.1)

Artists:  A B C D E F G H I J K L M N O P Q R S T U V W X Y Z # 

Desert Song Bass tabs (ver.1)

Hillsongs Tabs
Rating:
0/5 (0 votes)
Desert Song lessons Tabs too difficult? Try these video lessons and learn fast
                Desert Song
Bass Tab
'Drop D' Tuning

Intro
G|------------|----------------|------------|-------------|
D|------------|----------------|------------|-------------|
A|-2--------5-|-2--------5h7p5-|-2--------5-|-2-------/10-|
D|---4-7-55---|---4-7-55-------|---4-7-55---|---4-7-5-----|


Verse
G|---------|        |-----------|
D|---------|        |-----------|
A|-2-----5-| x7     |-2-----/10-|
D|---7-5---|        |---4-5-----|


Chorus
G|--------------------------------|
D|---7-5-5h7p5\4------------------|
A|-5------------5-5h7p4-----2-----|
D|----------------------4-7---5-7-|


Verse (Alternate)
G|------------|
D|------------|
A|-2--------5-| (repeat as needed)
D|--0247-55---|


Bridge
G|------------------|------------------------------------|
D|------------------|-----/9-7---7-9-5--5h7p5\4---/12----|
A|-22-222-222-222-2-|-5--------7---------------5------12-| (1st time)
D|------------------|------------------------------------|

G|-----------------|-----------------|-----------------|------------------|
D|-----------------|-----------------|-----------------|---------/12------|
A|-5-5-5-5-5-5-5-5-|-----------------|-----------------|-5-5-5-5-----12-9-| (2nd time)
D|-----------------|-9-9-9-9-9-9-9-9-|-7-7-7-7-5-5-5-5-|------------------|

G|-----------------|-----------------|-----------------|-------------------------------|
D|-----------------|-----------------|-----------------|---------/12------12-----------|
A|-5555555555555555|-----------------|-----------------|-55555555---12(12)--12(12)-9-7-| 
D|-----------------|-9999999999999999|-7777777755555555|-------------------------------|
(3rd & 4th time)
            

comments powered by Disqus
↑ Back to top | Hillsongs Bass for Desert Song. Lyrics for acoustic guitar and electric guitar. Tablatures and chords are parodies/interpretations of the original songs. You may use it for private study, scholarship, research or language learning purposes only