» » »

Hillsongs, Deeper Bass tabs (ver.1)

Artists:  A B C D E F G H I J K L M N O P Q R S T U V W X Y Z # 

Deeper Bass tabs (ver.1)

Hillsongs Tabs
Rating:
0/5 (0 votes)
Deeper lessons Tabs too difficult? Try these video lessons and learn fast
                Hillsong
Deeper
Look To You
2005

Bass Tab

Tuning: Standard EADG

Intro: 0:13
G|-7~--5~--4~--2~----7~--2~--1~--2~-|
D|-----------------3----------------|
A|----------------------------------|
E|----------------------------------|
then
G|----------------------------------|
D|----------------------------------|
A|-5~--3~--2~--0~-----0~-----0~--2--|
E|-----------------1~----4~---------|


Verses:
G|---------------------7-5---------------|
D|-------------------3-------------------|
A|-5~--3~------0~--5-------0~------0~--2-| (x2)
E|---------3~------------------4~--------|


Refrain:
G|----------------------------17~--------------0~--|
D|-12~---14~---15~---15h17p14------12~---14~-------|
A|-------------------------------------------------|
E|-------------------------------------------------|


Chorus:
G|-5~------0~------2-2-2-2-----------------5-5-5-5-0-0-0-0-|
D|-------------------------3-3-3-3-3-3-3-3-----------------|
A|---------------------------------------------------------|
E|---------------------------------------------------------|
then
G|-----------------2-2-2-2-------------------------------------------|
D|-----------------------------------------2-3-3-3-------------------|
A|-3-3-3-3-2-2-2-2-----------------------3---------0-0-0h3p0-------2-|
E|-------------------------3-3-3-3-1-1-1---------------------3-3-3---|


Interlude:
G|-----------------0-0-0-0-2-2-2-------------------1-1---1-2-2-2/4~-|
D|-0-0-0-0-----------------------0h2h3-3-3-2-2-2-2-----2------------|
A|---------3-3-3-3--------------------------------------------------|
E|------------------------------------------------------------------|


(Repeat Verses, Refrain and Chorus twice)


Bridge: This is the coolest part, Make it faster
G|--------------------------------------------------------------------------|
D|------10/12\10~---10/12~---14~------12/14/15~------15--14-----15--14--12~-|
A|-8~------------------------------15------------15----------15-------------|
E|--------------------------------------------------------------------------|
then
G|--------------------------------------------------------------------------|
D|----12----12-14-15------15--14-----15--14---------------------------------|
A|-15----15-----------15----------15---------14------14--15-----15-14-------|
E|-----------------------------------------------15----------15-------15-12-|
then
G|----------------------------------------------|
D|-------------------------12~----15p14--14p15~-|
A|---------------14--14h15----------------------|
E|-13~---12~--15--------------------------------|


By Your Love at 4:19
G|----------------------------------------------------------------------------|
D|----------------------------------------------------------------------------|
A|-8-8-8-8-8------------10-10-10-10---------8-8-8-8---------10-10-10---10-10~-| (x2)
E|-----------8-8-8-8/10-------------8-8-8-8---------8-8-8-8----------8--------|


Chorus:
G|----
D|----
A|-3~-
E|----
then
G|-----------------2-2-2-2-------------------------------------------|
D|-----------------------------------------2-3-3-3-------------------|
A|-3-3-3-3-2-2-2-2-----------------------3---------0-0-0h3p0-------2-|
E|-------------------------3-3-3-3-1-1-1---------------------3-3-3---|


(Repeat Chorus)


Outro:
G|-----------------------------------------------------|
D|-----------------------------------------------------|
A|-8-8-8---8-8-8-8-12-12-12----12-12-10-10-10----10-10-| (x2)
E|-------8------------------12----------------10-------|
then
G|-7/10~---------12~---------7/10~---------0~------------------------------|
D|---------10~---------10~-----------10~-------------------12h14h15~-------|
A|------------------------------------------------------15-------------15~-|
E|-------------------------------------------------------------------------|
            

comments powered by Disqus
↑ Back to top | Hillsongs Bass for Deeper. Lyrics for acoustic guitar and electric guitar. Tablatures and chords are parodies/interpretations of the original songs. You may use it for private study, scholarship, research or language learning purposes only