» » »

Hillsongs, Came To The Rescue Tabs (ver.1)

Artists:  A B C D E F G H I J K L M N O P Q R S T U V W X Y Z # 

Came To The Rescue Tabs (ver.1)

Hillsongs Tabs
 Rating:
4/5 (4 votes)
Came To The Rescue lessons Tabs too difficult? Try these video lessons and learn fast
                I dont know the exact chords, sorry. but I play it like this and it sounds good!

Capo 5th Fret
(chords relative to capo)

G   -(320033)
D   -(xx0232)
Em -(022030)
C   -(032030)

Intro:

G - D - Em - C

Verse 1:

G - D - Em - C

Chorus:

G - D - Em - C

Verse 2:

G - D - Em - C

Chorus:

G - D - Em - C

Bridge:

Em - G

Em - C

play bridge like this:

  [-----------------Em----------------]     [------------------G------------------|
e-3-3-3-3--2-2-2-2--3-3-3-3--2-2-2-2----3-3-3-3--2-2-2-2--3-3-3-3--2-2-2-2--------|
B-3-3-3-3--3-3-3-3--3-3-3-3--3-3-3-3----3-3-3-3--3-3-3-3--3-3-3-3--3-3-3-3--------|
D-0-0-0-0--0-0-0-0--0-0-0-0--0-0-0-0----0-0-0-0--0-0-0-0--0-0-0-0--0-0-0-0--------|
G-2-2-2-2--0-0-0-0--2-2-2-2--0-0-0-0----0-0-0-0--0-0-0-0--0-0-0-0--0-0-0-0--------|
A-2-2-2-2--2-2-2-2--2-2-2-2--2-2-2-2----2-2-2-2--0-0-0-0--2-2-2-2--0-0-0-0--------|
E-0-0-0-0--0-0-0-0--0-0-0-0--0-0-0-0----3-3-3-3--3-3-3-3--3-3-3-3--3-3-3-3--------|

  [-----------------Em----------------]     [------------------C------------------|
e-3-3-3-3--2-2-2-2--3-3-3-3--2-2-2-2----3-3-3-3--3-3-3-3--3-3-3-3--3-3-3-3--------|
B-3-3-3-3--3-3-3-3--3-3-3-3--3-3-3-3----3-3-3-3--3-3-3-3--3-3-3-3--3-3-3-3--------|
D-0-0-0-0--0-0-0-0--0-0-0-0--0-0-0-0----0-0-0-0--0-0-0-0--0-0-0-0--0-0-0-0--------|
G-2-2-2-2--0-0-0-0--2-2-2-2--0-0-0-0----2-2-2-2--2-2-2-2--2-2-2-2--2-2-2-2--------|
A-2-2-2-2--2-2-2-2--2-2-2-2--2-2-2-2----3-3-3-3--3-3-3-3--3-3-3-3--3-3-3-3--------|
E-0-0-0-0--0-0-0-0--0-0-0-0--0-0-0-0----0-0-0-0--0-0-0-0--0-0-0-0--0-0-0-0--------|

And then Chorus 1 more time:

G - D - Em - C


Enjoy!
            
Submit corrections

comments powered by Disqus
↑ Back to top | Hillsongs Tabs for Came To The Rescue. Lyrics for acoustic guitar and electric guitar. Tablatures and chords are parodies/interpretations of the original songs. You may use it for private study, scholarship, research or language learning purposes only