>
 >
As The Deer

As The Deer Guitar Tabs

Hillsongs - As The Deer chords, tabs, tablatures, lyrics

Guitar lessons | Add/correct | Request | Top 50 tabs Artists:  A B C D E F G H I J K L M N O P Q R S T U V W X Y Z 0-9

As The Deer Guitar Tabs – Hillsongs

CD, Sheet music, Poster

Do you like As The Deer? Share with your friends now
ChordsChords v2Chords v3Chords v4TabsUkulele
As The Deer By Jim Greeninger ( i know is not by hillsongs but is the only way to post this.
           Optional Tuning as Jim Greeninger plays it is 6.C- 5.G– 4.C- 3.F- 2.A- 1.D

E-||-------0--3-|-3-----0-------|------Slide----|----------------|
B-||-------1----|-0-------3---1-|-----3~~\\~~5--|-6-5------------|
G-||*------0----|-0---0-------2-|---2-----------|-5----7--5------|
D-||*---2-------|---------------|-2-------------|----------------|
A-||--3---------|-2-----------0-|---------------|----------------|
D-||------------|---------------|---------------|-5--------------|

E--5------5--|-3-------3--|-3--------3--|-1--0-------------0-----|
B------6-----|------------|-------3-----|-3--0---3-1-0-1-3-0-----|
G----5-------|------4-----|-----4-------|--------4-2-0-2-4-------|
D------------|----5-------|-------------|------------------------|
A------------|------------|-------------|------------------------|
D--3---------|-3----------|-2-----------|------------------------|

E--------0--3|-3-----0-------|------Slide----|-------------------|
B-------1----|-0-------3---1-|-----3~~\\~~5--|-6-5---------------|
G------0-----|-0---0-------2-|---2-----------|-5----7--5---------|
D----2-------|---------------|-2-------------|-------------------|
A--3---------|-2-----------0-|---------------|-------------------|
D------------|---------------|---------------|-5-----------------|

E-------------------|----------|-----------|---------------||----|
B--2--------3~\\~~5-|-3--------|-----------|---------------||----|
G--0----0-----------|------4---|------0----|-----0--------*||----|
D-----0-------------|----5---5-|----2------|---0----------*||----|
A-------------------|----------|--3-----3--|-2-----2-------||----|
D--3----------------|-3--------|-----------|---------------||----|

E--------8---8|-8---8--7--|--------------|--------------5|----5---|
B--------5----|-5---5-----|--10---10---8-|-------------5-|----5---|
G--------5----|-5---5-----|--9----9----7-|------------5--|----5---|
D--------7----|-7---7-----|--10---10---9-|--------3------|--------|
A--0----------|-----------|--8---------7-|-----0---------|--------|
D-------------|-----------|--------------|-0-------------|-0----0-|


E--5--3--1-|------0-|--------------------------------------------|
B--5--3--1-|------0-|-------0------------------------------------|
G--5--4--2-|------3-|-------0------------------------------------|
D----------|--------|-------0------------------------------------|
A----------|--------|--------------------------------------------|
D----------|-0-1-2--|-2~\\~~5------------------------------------|


E-||-------0--3-|-3-----0-------|------Slide----|----------------|
B-||-------1----|-0-------3---1-|-----3~~\\~~5--|-6-5------------|
G-||-------0----|-0---0-------2-|---2-----------|-5----7--5------|
D-||----2-------|---------------|-2-------------|----------------|
A-||--3---------|-2-----------0-|---------------|----------------|
D-||------------|---------------|---------------|-5--------------|

E-------------------|----------|-----------|---------------------|
B--2--------3~\\~~5-|-3--------|-----------|---------------------|
G--0----0-----------|------4---|------0----|-----0---------------|
D-----0-------------|----5---5-|----2------|---0-----------------|
A-------------------|----------|--3-----3--|-2-----2-------------|
D--3----------------|-3--------|-----------|---------------------|

E--------------------5-7-8|--------------|5-------5----5-|----5---|
B------------------5------|--10---10---8-|-5------5----5-|----5---|
G------------2-4-5--------|--9----9----7-|--5-----5----5-|----5---|
D----------2--------------|--10---10---9-|---0----0------|--------|
A--0--(h)3----------------|--8---------7-|----0---0------|--------|
D-------------------------|--------------|-----0-0-------|-0----0-|

E--5--3--1-|------0-|---------------------------------------------|
B--5--3--1-|------0-|-------0-------------------------------------|
G--5--4--2-|------3-|-------0-------------------------------------|
D----------|--------|-------0-------------------------------------|
A----------|--------|---------------------------------------------|
D----------|-0-1-2--|-2~\\~~5-------------------------------------|


E-||-------0--3-|-3-----0-------|------Slide----|----------------|
B-||-------1----|-0-------3---1-|-----3~~\\~~5--|-6-5------------|
G-||*------0----|-0---0-------2-|---2-----------|-5----7--5------|
D-||*---2-------|---------------|-2-------------|----------------|
A-||--3---------|-2-----------0-|---------------|----------------|
D-||------------|---------------|---------------|-5--------------|


E--5------5--|-3-------3--|-3--------3--|-1--0-------------0-----|
B------6-----|------------|-------3-----|-3--0---3-1-0-1-3-0-----|
G----5-------|------4-----|-----4-------|--------4-2-0-2-4-------|
D------------|----5-------|-------------|------------------------|
A------------|------------|-------------|------------------------|
D--3---------|-3----------|-2-----------|------------------------|

E-------0--3-|-3-----0-------|------Slide----|-------------------|
B-------1----|-0-------3---1-|-----3~~\\~~5--|-6-5---------------|
G------0-----|-0---0-------2-|---2-----------|-5----7--5---------|
D----2-------|---------------|-2-------------|-------------------|
A--3---------|-2-----------0-|---------------|-------------------|
D------------|---------------|---------------|-5-----------------|

E-------------------|----------|-----------|---------------||-----|
B--2--------3~\\~~5-|-3--------|-----------|---------------||-----|
G--0----0-----------|------4---|------0----|-----0--------*||-----|
D-----0-------------|----5---5-|----2------|---0----------*||-----|
A-------------------|----------|--3-----3--|-2-----2-------||-----|
D--3----------------|-3--------|-----------|---------------||-----|

E--------------------5-7-8|--------------|5-------5----5-|----5---|
B------------------5------|--10---10---8-|-5------5----5-|----5---|
G------------2-4-5--------|--9----9----7-|--5-----5----5-|----5---|
D----------2--------------|--10---10---9-|---0----0------|--------|
A--0--(h)3----------------|--8---------7-|----0---0------|--------|
D-------------------------|--------------|-----0-0-------|-0----0-|

E----3--1-|------0-|-----------------|----3~\~~5~~/~3------------|
B----3--1-|------0-|-----------------|----3~~\~5~~/~3------------|
G----4--2-|------3-|--------1--------|slidedown\\&//up-----------|
D---------|--------|-0-(h)2---0------|---------------------------|
A---------|--------|------------3--2-|-0-------------------------|
D---------|-0-1-2--|-----------------|---------------------------|

E-|-3-----0-------|------Slide----|----------------|
B-|-0-------3---1-|-----3~~\\~~5--|-6-5------------|
G-|-----0-------2-|---2-----------|-5----7--5------|
D-|---------------|-2-------------|----------------|
A-|-2-----------0-|---------------|----------------|
D-|---------------|---------------|-5--------------|

E------------------3|----------|----------0-----------|--0------|
B--2-------3~\\~5---|-3--------|------------1---1---1-|-----3---|
G--0----------------|------4---|--------------4---4---|---------|
D-----0-------------|----5---5-|-------2--------------|---------|
A-------------------|----------|--0-------------------|---------|
D--3----------------|-3----3---|----------------------|---------|

                                  do this part fast
E------------------|-------------|-------|-------|-------|--------|
B--1----1—3---5----|-3-----------|-----1-|-----1-|-----1-|-----0--|
G--0---------------|------4------|-----0-|-----0-|-----2-|-----0--|
D-----2------------|----5---5----|---2---|---0---|---2---|---0----|
A--0---------------|-------------|-3-----|-2-----|-0-----|--------|
D------------------|-3-----------|-------|-------|-------|-5------|

                              do this ending Slow
E---------|-------|---------|-------------5—5----7-5-----------10-|
B------1--|-----1-|------3--|-----------7-------------8--7--<7>---|
G------2--|-----2-|------3--|---------7---------------------<7>---|
D----0----|---2---|----3----|------4------------------------------|
A---------|-------|---------|----0--------------------------------|
D--3------|-2-----|--1------|--0----------------------------------|

you can end as this (or)          (or my favorite)
E-2----------------|-5---------|-5---------------------------------|
B--2---------------|--2--------|---0-------------------------------|
G---2--------------|---2-------|-----5-----------------------------|
D----4-------------|----4------|-------3---------------------------|
A------0-----------|------0----|---------0-------------------------|
D--------0---------|--------0--|-----------0-----------------------|


*Alternate tuning
D--------------------IF YOU HAVE ANY QUESTIONS--------------------------|
A-------------------MSG ME ON MY FACEBOOK PAGE--------------------------|
F----------------------ENJOY AND GOD BLESS------------------------------|
C---I DID MY BEST TO TAB THIS OUT SO I HOPE YOU GUYS LIKE IT------------|
G----THE ONLY PART I DIDN’T TAB IS WEN HE TRANSPOSES UP 2 FRETS---------|
C----- BUT IS BASICALY THE SAME JUST 2 STPES UP I THINK --------|





Comments


Popular Hillsongs tabs & chords
Amazing Love 5 Chords
Consuming Fire 3 Chords
Dwelling Places Chords
Emmanuel 2 Chords
First And The Last Chords
I Believe The Promise Chords
Jesus Lover Of My Soul 3 Chords
King Of Majesty 1 Chords
Saviour King 3 Chords
Follow The Son Tabs


Song lyrics



↑ Back to top | Tablatures and chords are parodies/interpretations of the original songs. You may use it for private study, scholarship, research or language learning purposes only
© 2014 AZChords.com Contact us | Privacy policy | DMCA | Add/correct tabs | Request tabs | Top 50 tabs