» » »

Above The Law Tabs (ver.1)

Artists:  A B C D E F G H I J K L M N O P Q R S T U V W X Y Z # 

Above The Law Tabs (ver.1)

Hardcore Superstar
Rating:
0/5 (0 votes)

Tabs too difficult? Try these video lessons and learn fast.
                
Tuning: E Standard


[Intro]

Guitar 1
e|---------------------------------------------------------|
B|--------------------5-5-4--------------*-----------------|
G|---9----6--2---4----4-4-4---9----6--4--2--------4--------|
D|---9----6--2---4----4-4-4---9----6--4--2--------4--------|
A|---7----4--0-2-2------------7----4--2--0--------2--------|
E|-------------0-------------------------------------------|

Guitar 2
(enters at the marked chord*)
e|----------------------------------------------|
B|---10-9-------10-9-------10-9-------10-9------|
G|--------11-9-------11-9-------11-9-------11---|
D|----------------------------------------------|
A|----------------------------------------------|
E|----------------------------------------------| x2


[Verse]

e|----------------------------|
B|--------------------5-5-4---|
G|---9----6--2---4----4-4-4---|
D|---9----6--2---4----4-4-4---|
A|---7----4--0-2-2------------|
E|-------------0--------------| x2

then:
e|--------------------------------------|
B|------------------------------5-5-4---|
G|-----------------9---2---4----4-4-4---|
D|--------6\4/6--8-9---2---4----4-4-4---|
A|---7-6--4\2/4--6-7---0-2-2------------|
E|-----------------------0--------------|

e|----------------------------------|
B|--------------------------5-5-4---|
G|-------------9---2---4----4-4-4---|
D|----6\4/6--8-9---2---4----4-4-4---|
A|----4\2/4--6-7---0-2-2------------|
E|-------------------0--------------|


[Pre-Chorus]

Guitar 1
e|---------------------------------------|
B|---------------------------------------|
G|---2--------4--------2--------4--------|
D|---2--------4--------2--------4--------|
A|---0--------2--------0--------2--------|
E|---------------------------------------|

Guitar 2
not really sure about this part but it sounds about right
e|---------------------------------------------|
B|-------------9-9-10-10-----------9-9-10-10---|
G|---9-9-11-11-----------9-9-11-11-------------|
D|---------------------------------------------|
A|---------------------------------------------|
E|---------------------------------------------| x3

e|------------------|
B|-------12---------|
G|---11b----11pb----|
D|------------------|
A|------------------|
E|------------------|

e|---------------------------------------------|
B|-------------9-9-10-10-----------9-9-10-10---|
G|---9-9-11-11-----------9-9-11-11-------------|
D|---------------------------------------------|
A|---------------------------------------------|
E|---------------------------------------------| x3

e|-------12-12---------------|
B|---12b-------12pbr-12-12b--|
G|---------------------------|
D|---------------------------|
A|---------------------------|
E|---------------------------|


[Chorus]

Guitar 1
e|---------------------------|
B|---------------------------|
G|---9----6--2---4----4-4----|
D|---9----6--2---4----4-4----|
A|---7----4--0-2-2----2-2----|
E|-------------0-------------|

e|---------------------------|
B|---------------------------|
G|---9-------2---4----4-4----|
D|---9----6--2---4----4-4----|
A|---7----6--0-2-2----2-2----|
E|--------4----0-------------|

e|---------------------------------------|
B|---*-----------------------------------|
G|---2--------4--------2--------4--------|
D|---2--------4--------2--------4--------|
A|---0--------2--------0--------2--------|
E|---------------------------------------|

Guitar 2
(enters at the marked chord*)
e|----------------------------------------------|
B|---10-9-------10-9-------10-9-------10-9------|
G|--------11-9-------11-9-------11-9-------11---|
D|----------------------------------------------|
A|----------------------------------------------|
E|----------------------------------------------| x4


[Second Chorus]
it only differs in the end

Guitar 1
e|---------------------------|
B|---------------------------|
G|---9----6--2---4----4-4----|
D|---9----6--2---4----4-4----|
A|---7----4--0-2-2----2-2----|
E|-------------0-------------|

e|---------------------------|
B|---------------------------|
G|---9-------2---4----4-4----|
D|---9----6--2---4----4-4----|
A|---7----6--0-2-2----2-2----|
E|--------4----0-------------|

e|---------------------------------------|
B|---*-----------------------------------|
G|---2--------4--------2--------4--------|
D|---2--------4--------2--------4--------|
A|---0--------2--------0--------2--------|
E|---------------------------------------|

Guitar 2
(enters at the marked chord*)
e|----------------------------------------------|
B|---10-9-------10-9-------10-9-------10-9------|
G|--------11-9-------11-9-------11-9-------11---|
D|----------------------------------------------|
A|----------------------------------------------|
E|----------------------------------------------| x2

(it changes the second time to two plucks on every note)
e|--------------------------------------------|
B|---10-10-9-9-----------10-10-9-9------------|
G|-------------11-11-9-9-----------11-11-9-9--|
D|--------------------------------------------|
A|--------------------------------------------|
E|--------------------------------------------| x3
then:
e|-------12---------|
B|---12b----12pb----|
G|------------------|
D|------------------|
A|------------------|
E|------------------|


[Guitar solo]

Guitar 1 (Rhythm)
e|---------------------------|
B|---------------------------|
G|---9----6--2---4----4-4----|
D|---9----6--2---4----4-4----|
A|---7----4--0-2-2----2-2----|
E|-------------0-------------|

e|---------------------------|
B|---------------------------|
G|---9-------2---4----4-4----|
D|---9----6--2---4----4-4----|
A|---7----6--0-2-2----2-2----|
E|--------4----0-------------|

e|----------------------------------|
B|--------------------------5-5-4---|
G|-------------9---2---4----4-4-4---|
D|----6\4/6--8-9---2---4----4-4-4---|
A|----4\2/4--6-7---0-2-2------------|
E|-------------------0--------------|

e|----------------------------------|
B|--------------------------5-5-4---|
G|-------------9---2---4----4-4-4---|
D|----6\4/6--8-9---2---4----4-4-4---|
A|----4\2/4--6-7---0-2-2------------|
E|-------------------0--------------|

Dont know the guitar solo note for note (only some parts)
but its in "C#m" if you can improvise


| /   slide up
| \   slide down
| h   hammer-on
| p   pull-off
| ~   vibrato
| +   harmonic
| x   Mute note
| b   Bend
| pb  Pre-bend
| br  Bend release
| pbr Pre-bend release
| brb Bend release bend
            
Tabs too difficult? Try these video lessons and learn fast.




comments powered by Disqus
↑ Back to top | Tablatures and chords are parodies/interpretations of the original songs. You may use it for private study, scholarship, research or language learning purposes only