» » »

Hillsongs, All Day Tabs (ver.5)

Artists:  A B C D E F G H I J K L M N O P Q R S T U V W X Y Z # 

All Day Tabs (ver.5)

Hillsongs Tabs
 Rating:
4/5 (4 votes)
All Day lessons Tabs too difficult? Try these video lessons and learn fast
                Hillsong United Live
All Day 

BASS:Intro, Verse


G|---------------1-----------------------------------|
D|-----------2-2---2-----1-2-------------------------|
A|-------1-2---------2-2---------2-1-----------------|
E|---4-4---------------------2-2---------------------|




GUITAR 1 
Verse 1
Cause I Love You and I will follow you...


e|-----------------------------------------------------|
B|-----------------------------------------------------|
G|---4-----6----6^8-----9----9^8----6----6^8-----------|
D|-----------------------------------------------------|
A|-----------------------------------------------------|
E|-----------------------------------------------------|



GUITAR 2 
in 00:35

e|-----------------------------------------------------|
B|-----------------------------------------------------|
G|-----------------------------------------------------|
D|----6-6----------------------------------------------|
A|----6-6----------------------------------------------|
E|-----------------------------------------------------|


Guitar 1
After verse 1
e|-----------------------------------------------------|
B|-----------------------------------------------------|
G|---4-----6--8-----3--4-------------------------------|
D|-----------------------------------------------------|
A|-----------------------------------------------------|
E|-----------------------------------------------------|




Guitar 1
verse 2
Cause I Love you And I will Follow You...
e|-----------------------------------------------------|
B|-----------------------------------------------------|
G|---4-----6----6^8-----9----9^8----6----6^8-----------|
D|-----------------------------------------------------|
A|-----------------------------------------------------|
E|-----------------------------------------------------|



Guitar 2 
Verse 2  
Cause I Love you And I will Follow You...
e|-----------------------------------------------------|
B|-----------------------------------------------------|
G|-----------------------------------------------------|3x
D|----6-6---9-9-9---9-9---11-11-11---------------------|
A|----6-6---7-7-7---9-9---9--9--9----------------------|
E|----4-4-----------7-7--------------------------------|



e|-----------------------------------------------------|
B|-----------------------------------------------------|
G|-----------------------------------------------------|
D|----6-6-9-9-9-9-9-4-4-4------------------------------|
A|----6-6-7-7-7-9-9-4-4-4------------------------------|
E|----4-4-------7-7-2-2-2------------------------------|



CHORUS

e|-----------------------------------------------------|
B|-----------------------------------------------------|
G|-----------------------------------------------------|2x
D|----4-4-2-2-4-4-4-4-4-4-2-2-6-6-2-2------------------|
A|----2-2-2-2-2-2-4-4-2-2-2-2-6-6-2-2------------------|
E|--------0-0-----2-2-----0-0-4-4-0-0------------------|





Part After Chorus
Guitar 1
e|-----------------------------------------------------|
B|-----------------------------------------------------|
G|---4-----6----6^8------------------------------------|
D|-----------------------------------------------------|
A|-----------------------------------------------------|
E|-----------------------------------------------------|


Part After Chorus
Guitar 2
e|--7-7-8-8-7-7-----7-7-8-8-7-7-----7-7-8-8-7-7-----7-7-8-8-7^11-|
B|--------------5-4-------------5-4-------------5-4--------------|
G|---------------------------------------------------------------|
D|---------------------------------------------------------------|
A|---------------------------------------------------------------|
E|---------------------------------------------------------------|



Verse 3
Guitar 2
I Don´t care What they say about me... 
e|-----------------------------------------------------|
B|-----------------------------------------------------|
G|-----------------------------------------------------|
D|--6-6-6-9-9-9-9-9-9-9-9-11-11-11-11------------------|
A|--6-6-6-7-7-7-7-9-9-9-9-9--9--9--9-------------------|
E|--4-4-4---------7-7-7-7------------------------------|



e|------------------------------------------------------|
B|------------------------------------------------------|
G|------------------------------------------------------|
D|--6-6-6-2-2-2-2-9-9-9-9-4-4-4-4-----------------------|
A|--6-6-6-2-2-2-2-9-9-9-9-4-4-4-4-----------------------|
E|--4-4-4-0-0-0-0-7-7-7-7-2-2-2-2-----------------------|




e|-----------------------------------------------------|
B|-----------------------------------------------------|
G|-----------------------------------------------------|
D|--6-6-6-9-9-9-9-9-9-9-9-11-11-11-11------------------|
A|--6-6-6-7-7-7-7-9-9-9-9-9--9--9--9-------------------|
E|--4-4-4---------7-7-7-7------------------------------|




e|-----------------------------------------------------
B|-----------------------------------------------------|
G|-----------------------------------------------------|
D|--6-6-6-2-2-2-2-9------9^8---------------------------|
A|--6-6-6-2-2-2-2-9--9-9-------------------------------|
E|--4-4-4-0-0-0-0-7------------------------------------|



Guitar 1
verse 3
Cause I Love you And I will Follow You...
e|-----------------------------------------------------|
B|-----------------------------------------------------|
G|---4-----6----6^8-----9----9^8----6----6^8-----------|
D|-----------------------------------------------------|
A|-----------------------------------------------------|
E|-----------------------------------------------------|



Guitar 2 
Verse 3 (Palm Muted)
e|-----------------------------------------------------|
B|-----------------------------------------------------|
G|-----------------------------------------------------|3x
D|----6-6---9-9-9---9-9---11-11-11---------------------|
A|----6-6---7-7-7---9-9---9--9--9----------------------|
E|----4-4-----------7-7--------------------------------|




e|-----------------------------------------------------|
B|-----------------------------------------------------|
G|-----------------------------------------------------|
D|----6-6-9-9-9-9-9-4-4-4------------------------------|
A|----6-6-7-7-7-9-9-4-4-4------------------------------|
E|----4-4-------7-7-2-2-2------------------------------|




CHORUS 




Bridge
Anyone around can see...
e|-----------------------------------------------------|
B|-----------------------------------------------------|
G|----6-6-6-6-6-6-6-6-9-9-9-9-9-9-9-9------------------|3x
D|----x-x-x-x-x-x-x-x-x-x-x-x-x-x-x-x------------------|
A|----4-4-4-4-4-4-4-4-7-7-7-7-7-7-7-7------------------|
E|-----------------------------------------------------|



e|-----------------------------------------------------|
B|-----------------------------------------------------|
G|----6-6-6-6-6-6-6-6-9-9-9-9-9-9-9-9------------------|
D|----x-x-x-x-x-x-x-x-x-x-x-x-x-x-x-x-9----------------|
A|----4-4-4-4-4-4-4-4-7-7-7-7-7-7-7-7-9----------------|
E|------------------------------------7----------------|




Singing with the Crowd several times All DAy
Guitar 2
e|-------------------------------------------------------|
B|-------------------------------------------------------|
G|-------------------------------------------------------|
D|---9-b9------------------------------------------------|8x
A|---9-b9------------------------------------------------|
E|---7-b7------------------------------------------------|



And after that
Guitar 1
e|-----------------------------------------------------|
B|-----------------------------------------------------|
G|---4-----6----6^8-----9----9^8----6----6^8-----------|
D|-----------------------------------------------------|
A|-----------------------------------------------------|
E|-----------------------------------------------------|




CHORUS 4x

I think is Something like That
God Bless!
            
Submit corrections

comments powered by Disqus
↑ Back to top | Hillsongs Tabs for All Day. Lyrics for acoustic guitar and electric guitar. Tablatures and chords are parodies/interpretations of the original songs. You may use it for private study, scholarship, research or language learning purposes only