» » »

Hillsong London, 'Till I See You Bass tabs (ver.1)

Artists:  A B C D E F G H I J K L M N O P Q R S T U V W X Y Z # 

'Till I See You Bass tabs (ver.1)

Hillsong London Tabs
Rating:
0/5 (0 votes)
'Till I See You lessons Tabs too difficult? Try these video lessons and learn fast
                -------------------------------------------------------------------------------
			     SONG NAME - Hillsong London - Till i see You
-------------------------------------------------------------------------------


Tuning: Standard

Verse 0:00                                  0:07
G|----------------------|----------------------|
D|--7----9----11----11--|--7----9----11----11--|
A|----------------------|----------------------|
E|----------------------|----------------------| x 3

Bridge 0:41                                     0:48
G|----------------------|--------------------|
D|--7----9----11----11--|--7----7----7----7--|
A|----------------------|--------------------|
E|----------------------|--------------------| 

Verse 0:54                                  1:02
G|-----------------------|----------------------|
D|---7----9----11----11--|--7----9----11----11--|
A|-h9--------------------|----------------------|
E|-----------------------|----------------------| 

Bridge 1:08                                     1:15
G|----------------------|--------------------|
D|--7----9----11----11--|--7----7----7----7--|
A|----------------------|--------------------|
E|----------------------|--------------------|

Chorus 1:22                               1:36
G|---------------------|-------------------------|
D|---------------------|-------------------------|
A|--7----6----4--4/11--|--12----14--14/16----14--|
E|---------------------|-------------------------|

Verse 1:49                                    1:56
G|----------------------|----------------------|
D|--7----9----11----11--|--7----9----11----11--|
A|----------------------|----------------------|
E|----------------------|----------------------|

Chorus 2:16                               2:30
G|---------------------|-------------------------|
D|---------------------|-------------------------|
A|--7----6----4--4/11--|--12----14--14/16----14--|
E|---------------------|-------------------------| x 2

Bridge 3:10
G|---------------------|---------------------|
D|--7---------9----11--|--7---------9----11--|
A|-------7-------------|-------7-------------|
E|---------------------|---------------------|

                                                      3:30
G|---------------------|-------------------------------|
D|---------------------|--7---------7---------9----11--|
A|--7---------9----11--|-------7---------7-------------|
E|-------7-------------|-------------------------------|

Outtro 3:39
G|---------------------|--------------------------|
D|--7---------9----11--|--7---------9----11----7--|
A|-------7-------------|-------7------------------|
E|---------------------|--------------------------|



| /  slide up
| \  slide down
| h  hammer-on
| p  pull-off
| ~  vibrato
| +  harmonic
| x  Mute note
===============================================================================
            

comments powered by Disqus
↑ Back to top | Hillsong London Bass for 'Till I See You. Lyrics for acoustic guitar and electric guitar. Tablatures and chords are parodies/interpretations of the original songs. You may use it for private study, scholarship, research or language learning purposes only