» » »

Hillsong London, Saviours Love Bass tabs (ver.1)

Artists:  A B C D E F G H I J K L M N O P Q R S T U V W X Y Z # 

Saviours Love Bass tabs (ver.1)

Hillsong London Tabs
Rating:
0/5 (0 votes)
Hard to play? Try these video lessons and learn fast.
                ------------------------------------------------------------------------------
			     SONG NAME - Hillsong London - Saviours Love
-------------------------------------------------------------------------------


Tuning: Standard


Verse 0:00 - 0:47
G|----------------------|
D|----------------------|
A|--4----2----/7----7---|
E|----------------------|

0:39 - 0:47
G|------------------------|
D|------------------------|
A|--4----2----/9----9\7---|
E|------------------------|

Bridge
0:48
G|--------------------|---------------------|-------------------------------|
D|--------------------|---------------------|-------------------------------|
A|--7----------4------|--7----9----9----9--|--------------------------------|
E|-------7---------5--|---------------------|-------------------------------|

Chorus 1:05
G|---------------------|----------------------|
D|---------------------|----------------------|
A|--12----7---------4--|-------7----7h9-------|
E|-------------7--------|--5-----------7------|

G|---------------------|-----------------------|
D|---------------------|-----------------------|
A|--12----7---------4--|-------7----9----9-----|
E|--------------7-------|--5-------------------|

1:28
G|--------------------|-------------|
D|----7----9----7-----|--7----9r----|
A|--7--------------9--|-------------|
E|--------------------|-------------|

Verse 1:48
G|----------------------|
D|----------------------|
A|--4----2----/7----7---|
E|----------------------|

2:21
G|------------------------|
D|------------------------|
A|--4----2----/9----9\7---|
E|------------------------|

Bridge
2:24
G|--------------------|---------------------|-------------------------------|
D|--------------------|---------------------|-------------------------------|
A|--7----------4------|--7----9----9----9--|--------------------------------|
E|-------7---------5--|---------------------|-------------------------------|

Chorus 2:40
G|---------------------|----------------------|
D|---------------------|----------------------|
A|--12----7---------4--|-------7----7h9-------|
E|-------------7--------|--5-----------7------|

G|---------------------|-----------------------|
D|---------------------|-----------------------|
A|--12----7---------4--|-------7----9----9-----|
E|--------------7-------|--5-------------------|

3:04
G|--------------------|-------------|
D|----7----9----7-----|--7----9r----|
A|--7--------------9--|-------------|
E|--------------------|-------------|

Break 3:24

Ending play 4:42
G|---------------------|
D|--7---------9-----9--|
A|-------7-------------|
E|---------------------| Repeat play until break

Break 5:28

Ending play 5:57
G|-----------------------|
D|--7----9-----7---------|
A|------------------9----|
E|-----------------------| Repeat play until end of song

| /  slide up
| \  slide down
| h  hammer-on
| p  pull-off
| ~  vibrato
| +  harmonic
| x  Mute note
===============================================================================
            

comments powered by Disqus
↑ Back to top | Hillsong London Bass for Saviours Love. Lyrics for acoustic guitar and electric guitar. Tablatures and chords are parodies/interpretations of the original songs. You may use it for private study, scholarship, research or language learning purposes only