» » »

Hillsong London, My Future Decided Bass tabs (ver.1)

Artists:  A B C D E F G H I J K L M N O P Q R S T U V W X Y Z # 

My Future Decided Bass tabs (ver.1)

Hillsong London Tabs
 Rating:
4/5 (4 votes)
My Future Decided lessons Tabs too difficult? Try these video lessons and learn fast
1
                -------------------------------------------------------------------------------
			 My Future Decided - Hillsong United
-------------------------------------------------------------------------------


Tuning:  EADG

This can easily be done on a 4-string bass.  I had to rehearse this for my church using 
Ibanez 4-string and a TASCAM BASS TRAINER.  This is what I came up with.

INTRO (SYNTH ONLY NO BASS FIRST TIME)
G|--------|--------|--------|--------|--------|--------|--------|--------|
D|--------|--------|--------|--------|--------|--------|--------|--------|
A|44------|44--5544|00000000|00002222|44------|44--5544|00000000|00002222|
E|--222222|--22----|--------|--------|--222222|--22----|--------|--------|

G|--------|--------|--------|--------|
D|--------|--------|--------|--------|
A|44------|44--5544|00000000|0000000/|
E|--222222|--22----|--------|--------|

VERSE
G|--------|--------|--------|--------|--------|--------|--------|--------|
D|--------|--------|--------|--------|00000000|--------|--------|--------|
A|99999999|99999999|00000000|00000000|--------|00000000|--------|--------|
E|--------|--------|--------|--------|--------|--------|22222222|22222222|

G|--------|--------|--------|--------|--------|--------|--------|--------|
D|00000000|--------|--------|--------|00000000|--------|--------|--------|
A|--------|00000000|--------|--------|--------|00000000|77777777|7777777\|
E|--------|--------|22222222|22222222|--------|--------|--------|--------|

CHORUS
G|--------|--------|--------|--------|--------|--------|--------|--------|
D|------0-|00--000-|--------|--------|------0-|00-0-0-/|4x44x44-|44--2222|
A|0X00X---|--------|--------|--------|0x00x0--|--------|--------|--------|
E|--------|--------|2X22X22-|22--222-|--------|--------|--------|--------|

G|--------|--------|--------|--------|--------|--------|
D|0000--0-|--------|--------|--------|0000--0-|------2-|
A|--------|0000--0-|--------|--------|--------|000-00--|
E|--------|--------|00000000|00000000|--------|--------|
(repeat INTRO 2x)

verse 2
G|--------|--------|--------|--------|--------|--------|--------|--------|
D|--------|--------|--------|--------|--------|--------|--------|--------|
A|9-------|-------\|--------|--------|--------|--------|--------|--------|
E|--------|--------|--------|--------|--------|--------|--------|-2-2-2--|

G|--------|--------|--------|--------|--------|--------|--------|--------|
D|00000000|--------|--------|--------|00000000|--------|--------|--------|
A|--------|00000000|--------|--------|--------|00000000|77777777|7777777\|
E|--------|--------|22222222|22222222|--------|--------|--------|--------|
(repeat CHORUS)

BRIDGE
G|--------|--------|--------|--------|--------|--------|--------|--------|
D|--------|--------|--------|--------|--------|--------|--------|--------|
A|--0---0-|--0---0-|00000000|00002222|--0---0-|--0---0-|00000000|2202024-|
E|2---4---|2---4---|--------|--------|2---4---|2---4---|--------|--------|

G|--------|--------|--------|--------|--------|--------|--------|--------|
D|--------|--------|--------|--------|--------|--------|--------|--------|
A|--------|--------|0-------|-------x|--------|--------|--------|----0-0-|
E|2-------|--------|--------|--------|--------|--------|--------|--------|

G|--------|--------|--------|--------|--------|--------|--------|--------|
D|--------|--------|--------|--------|--------|--------|--------|--------|
A|--------|--------|0-0-0-0-|0-0-2-2-|--------|--------|44444444|44444444|
E|2-2-2-2-|2-2-2-2-|--------|--------|2-2-2-2-|2-2-2-2-|--------|--------|

CHORUS 2
G|--------|--------|--------|--------|--------|--------|--------|--------|
D|------0-|0-0-000-|--------|--------|------0-|00-0-0-/|4x44x44-|44--2222|
A|0X00X---|--------|--------|--------|0x00x0--|--------|--------|--------|
E|--------|--------|2X22X-2-|22--222-|--------|--------|--------|--------|

G|--------|--------|--------|--------|--------|--------|--------|--------|
D|0000--0-|--------|--------|--------|0000--0-|--------|--------|--------|
A|--------|0000--0-|--------|--------|-------0|000-000-|77777777|7777777\|
E|--------|--------|00000000|00000000|--------|--------|--------|--------|

G|--------|--------|--------|--------|--------|--------|--------|--------|
D|------0-|0-0-000-|--------|--------|------0-|00-0-0-/|4x44x44-|44--2222|
A|0X00X---|--------|--------|--------|0x00x0--|--------|--------|--------|
E|--------|--------|2X22X-2-|22--222-|--------|--------|--------|--------|

G|--------|--------|--------|--------|--------|--------|--------|----442-|
D|0000--0-|--------|--------|--------|0000--0-|--------|--------|-------2|
A|--------|0000--0-|--------|--------|--------|000-000-|77777777|7777----|
E|--------|--------|00000000|00000000|--------|--------|--------|--------|

G|--------|--------|--------|--------|--------|--------|--------|--------|
D|0000--0-|--------|--------|--------|0000--0-|--------|--------|--------|
A|--------|0000--0-|--------|--------|--------|000---0-|--------|--------|
E|--------|--------|00000000|00000000|--------|--------|0-------|--------|


| /  slide up
| \  slide down
| h  hammer-on
| p  pull-off
| ~  vibrato
| +  harmonic
| x  Mute note
===============================================================================
            
Submit corrections

comments powered by Disqus
↑ Back to top | Hillsong London Bass for My Future Decided. Lyrics for acoustic guitar and electric guitar. 1 Tablatures and chords are parodies/interpretations of the original songs. You may use it for private study, scholarship, research or language learning purposes only