>
 >
God Is Able

God Is Able Bass Tabs

Hillsong Live - God Is Able chords, tabs, tablatures, lyrics

Guitar lessons | Add/correct | Request | Top 50 tabs Artists:  A B C D E F G H I J K L M N O P Q R S T U V W X Y Z 0-9

God Is Able Bass Tabs – Hillsong Live

CD, Sheet music, Poster

Do you like God Is Able? Share with your friends now
Bass Tabs
This is my first tab and I know is not 100% correct but if you play it like this it 
sounds close enough. Any constructive criticism or comments are most welcome to be sent to 
I have added the time and lyrics at the start of each line so it's harder to get lost.
God Bless


The bass don't come in until 0:17 but you can just play a soft 'B' if you wish

INTRO
Hold for the whole bar
0:17
G|----------------|----------------|----------------|----------------|
D|----------------|----------------|----------------|----------------|
A|2---------------|----------------|----------------|----------------|
E|----------------|2---------------|4---------------|0000000000000000|

G|----------------|----------------|----------------|----------------|
D|----------------|----------------|----------------|----------------|
A|2222222222222222|----------------|----------------|----------------|
E|----------------|2222222222222222|4444444444444444|0000000000000000|

VERSE 1
0:41
God is able, He will never fail
G|----------------|----------------|----------------|----------------|
D|----------------|----------------|----------------|----------------|
A|2222222222222222|----------------|----------------|----------------|
E|----------------|2222222222222222|4444444444444444|0000000000000000|

Greater than all we see
G|----------------|----------------|----------------|----------------|
D|----------------|----------------|----------------|----------------|
A|2222222222222222|----------------|----------------|----------------|
E|----------------|2222222222222222|4444444400000000|2222222222222222|

Chorus
1:05
Lifted up, He defeated the grave
G|----------------|----------------|----------------|----------------|
D|----------------|----------------|----------------|----------------|
A|2---------------|----------------|----------------|----------------|
E|----------------|2---------------|4---------------|0---------------|

In His name, we overcome
G|----------------|----------------|----------------|----------------|
D|----------------|----------------|----------------|----------------|
A|6---------------|----------------|----------------|----------------|
E|----------------|2---------------|4---4---22222222|0000000000000000|

Fill
1:30
G|----------------|----------------|----------------|----------------|
D|----------------|----------------|----------------|----------------|
A|2222222222222222|----------------|----------------|----------------|
E|----------------|2222222222222222|4444444444444444|0000000000000000|

VERSE 2
1:42
God is with us
G|----------------|----------------|----------------|----------------|
D|----------------|----------------|----------------|----------------|
A|2222222222222222|----------------|----------------|----------------|
E|----------------|2222222222222222|4444444444444444|0000000444000000|

Far above all we know
G|----------------|----------------|----------------|----------------|
D|----------------|----------------|----------------|----------------|
A|2222222222222222|----------------|----------------|----------------|
E|----------------|2222222222222222|4444444400000000|2222222222222222|

Chorus
2:06
Lifted up, He defeated the grave
G|----------------|----------------|----------------|----------------|
D|----------------|----------------|----------------|----------------|
A|2-2-2-22222-2-2-|----------------|----------------|----------------|
E|----------------|2-2-2-20202-2-2-|4-4-4-44444-4-4-|0-0-0-0000000000|

In His name, we overcome
G|----------------|----------------|----------------|----------------|
D|----------------|----------------|----------------|----------------|
A|6-6-6-66666-6-6-|----------------|----------------|----------------|
E|----------------|2-2-2-20202-2-2-|4-4-4-4-2-2-2-2-|0-0-0-0-00000000|

Instrumental
2:29
G|----------------|----------------|----------------|----------------|
D|----------------|----------------|----------------|----------------|
A|9-9-9-9-9-9-9-9-|----------------|----------------|----------------|
E|----------------|2-2-2-2-2-2-2-2-|4-4-4-4-2-2-2-2-|0-0-0-0-00000000|

Bridge
2:42
God is with us, He will go before
G|----------------|----------------|----------------|----------------|
D|----------------|----------------|----------------|----------------|
A|2222222222222222|----------------|----------------|----------------|
E|----------------|2222222222222222|4444444422222222|0000000000000000|

God is for us, and He has open arms
G|----------------|----------------|----------------|----------------|
D|----------------|----------------|----------------|----------------|
A|6666666666666666|----------------|----------------|----------------|
E|----------------|2222222222222222|4444444422222222|0000000000000000|

Chorus
3:07
Lifted up, He defeated the grave
G|----------------|----------------|----------------|----------------|
D|----------------|----------------|----------------|----------------|
A|2---------------|----------------|----------------|----------------|
E|----------------|2---------------|4---------------|0---------------|

In His name, We overcome
G|----------------|----------------|----------------|----------------|
D|----------------|----------------|----------------|----------------|
A|6-6-6-6-6-6-6-6-|----------------|----------------|----------------|
E|----------------|2-2-2-2-2-2-2-2-|4---4---22222222|0000000000000000|


Lifted up, He defeated the grave
G|----------------|----------------|----------------|----------------|
D|----------------|----------------|----------------|----------------|
A|2-2-2-22222-2-2-|----------------|----------------|----------------|
E|----------------|2-2-2-20202-2-2-|4-4-4-44444-4-4-|0000000000000000|

In His name, We overcome
G|----------------|----------------|----------------|----------------|
D|----------------|----------------|----------------|----------------|
A|6-6-6-66666-6-6-|----------------|----------------|----------------|
E|----------------|2-2-2-20202-2-2-|4-4-4-4-2-2-2-2-|0000000000000000|

Ending
3:55
For the Lord our God is able
G|----------------|----------------|----------------|----------------|
D|----------------|----------------|----------------|----------------|
A|----------------|----------------|----------------|----------------|
E|4-4-4-4-2-2-2-2-|0000000000000000|4-4-4-4-2-2-2-2-|0000000000000000|

End on B





Comments


Popular Hillsong Live tabs & chords
Glorious Ruins Chords
Glorius Ruins Chords
Grace Abounds Chords
I Surrender 1 Chords
I Surrender 3 Chords
We Have A Savior Chords
Where The Spirit Of The Lord Is 1 Chords
You Never Fail 4 Chords
Anchor Tabs
Correremos - Running Ukulele


Song lyrics



↑ Back to top | Tablatures and chords are parodies/interpretations of the original songs. You may use it for private study, scholarship, research or language learning purposes only
© 2014 AZChords.com Contact us | Privacy policy | DMCA | Add/correct tabs | Request tabs | Top 50 tabs