» » »

Hillsong, More Than Anything Tabs (ver.1)

Artists:  A B C D E F G H I J K L M N O P Q R S T U V W X Y Z # 

More Than Anything Tabs (ver.1)

Hillsong Tabs
 Rating:
4.2/5 (5 votes)
More Than Anything lessons Tabs too difficult? Try these video lessons and learn fast
                Octaves
------------------------------------|
------------------------------------|
-11-----9--8--6---6-----4--6--8-----|
---(3x)------------(3x)--------(2x)-|
-9------7--6--4---4-----2--4--6-----|
------------------------------------|

------------------------------|
------------------------------|
-11----9--8--6---6----4s8s6s4-|
---(3x------------(3x)--------|
-9-----7--6--4---4----2s6s4s2-|
------------------------------|

--------------------------------|
--------------------------------|
-11-----9--8--6---6-----4--6--8-|
---(3x)------------(3x)---------|
-9------7--6--4---4-----2--4--6-|
--------------------------------|

--------------------------------|
--------------------------------|
-11-----9--8--6---6-----3-4-----|
---(3x)------------(3x)----(2x)-|
-9------7--6--4---4-----1-2-----|
--------------------------------|
fast strumming


Verse: palm mutes
-----------|
-----------|
-----------| (4x)
--8-9-8-6--|
-----------|
-----------|
Rpt each note


Pre-chorus: My favorite part

Strum
------------------- --------|
--7---------5------ -7------|
--6--xxx-4--4------(2x)-6---|
--4--xxx-4--2------ -4------|
-----xxx-2--------- --------|
------------------- --------|
F#m B E F#m

Chorus: lead part
---------------------------|
-----12-12-11---7----------|
---------------------------| 4x
--7s9--9--9--9s7-----------|
---------------------------|
---------------------------|

Chords
E F#m G#m

Bridge: Palm mutes
--------------------------|
--------------------------|
-11-9-8-11-9-8-11-8-9-8---|
--------------------------|
--------------------------|
--------------------------|
Rpt each note refer to the video

Followed by: strumming
---------------------|
---------------------|
-4-4---4-4--4-8-8----|
-4-4---4-4-----------| (3x)
-2-2---2-2--2-6-6----|
---------------------|

---------------------|
---------------------|
--4-4--4-4-4-4-4-----|
--2-2--2-2-2-2-2-----|
--2-2--2-2-2-2-2-----|
---------------------|

octave strum
---------------------|
---------------------|
--4--11-9--8---------| (8x)
---------------------|
--2--9--7--6---------|
---------------------|

---------------------|
---------------------|
--4--11-9--8--4------|
--------------2------|
--2--9--7--6--2------|
---------------------|
            
Submit corrections

comments powered by Disqus
↑ Back to top | Hillsong Tabs for More Than Anything. Lyrics for acoustic guitar and electric guitar. Tablatures and chords are parodies/interpretations of the original songs. You may use it for private study, scholarship, research or language learning purposes only