» » »

I'm Not Ashamed Tabs (ver.1)

Artists:  A B C D E F G H I J K L M N O P Q R S T U V W X Y Z # 

I'm Not Ashamed Tabs (ver.1)

Hillsong
Rating:
0/5 (0 votes)

Hard to play? Try these video lessons and learn fast.
                Im Not Ashamed of the Gospel, Live

 INTRO: tab by: Jeffrey Galuno (May 21, 2009 12:53PM)

legend: H=hammer
	s=slide
	~=play the string for tremolo
	(8x)=hit th note 8 times

e----------------------------------------------------------|
B-13s15--12~-12--------------------13s15--12~---12---------|
G---------------12--11------------------------12--12H14-11-|
D----------------------------------------------------------|
A----------------------------------------------------------|
E----------------------------------------------------------|

e-----------------------------------------------------------|
B-13s15--12~-12--------------------13s15--12~---------------|
G---------------12--11------------------------12(8x)--14----|(8x)
D-----------------------------------------------------------|
A-----------------------------------------------------------|
E-----------------------------------------------------------|

   Em      G      C     Am          Em      G      C    Am
e----------------------------------------------------------]
B-13-13--12-12--10-10--12-12~~-----13-13--12-12--10-10-----]w/ wah FX
G-------------------------------------------------------9-9] REPEAT 2X
D----------------------------------------------------------]
A----------------------------------------------------------]
E----------------------------------------------------------]

 then just follow the chords (chords is from the courteousy of a guitarist from 
brother)

Intro: C-G-D (6x)
	Em-G-C-Am (4x) (suggested to play using power chords)

Verse 1:
Em  G    C      Am
When You found me
Em  G    C       Am
My whole world changed
Em  G     C      Am  Em  G  C  Am
I'm redeemed by life

Verse 2:
Em  G      C   Am
Let the earth see
Em  G       C   Am
You are freedom
Em  G       C    Am       Em  G  C  Am
Turn my darkness to light

Pre-chorus:
C                 G
You welcomed me in
     D       C
With open arms
       G       D
Into unending life

CHORUS:
G                      D
I'm not ashamed of the gospel Lord
      Em                    C
Your power, your Love has saved my soul now
G     D    Em
I'm alive You
      C
I'm living the rising son.

Em  G  C      Am
I'm living the rising son.


happy playing!
God bless...

Help me with the effects combination, wah is not enough...

Correction will be appreciated. Thank You and God bless...
            
Hard to play? Try these video lessons and learn fast. | Correct




comments powered by Disqus
↑ Back to top | Tablatures and chords are parodies/interpretations of the original songs. You may use it for private study, scholarship, research or language learning purposes only