>
 >
Player

Player Guitar Tabs

Herrick Dave - Player chords, tabs, tablatures, lyrics

Guitar lessons | Add/correct | Request | Top 50 tabs Artists:  A B C D E F G H I J K L M N O P Q R S T U V W X Y Z 0-9

Player Guitar Tabs – Herrick Dave

CD, Sheet music, Poster

Do you like Player? Share with your friends now
Tabs
Dave Herrick - Player


    F#5 E5       C#5                                 A#5
  e:---------  --------------------------------------------
  B:---------  --------------------------------------------
  G:---------  --------------------------------------------
  D:--4\2-22-  -/11-11-11-11-11-11-11-11---2-2-2-4-4-6-6---
  A:--4\2-22-  -/11-11-11-11-11-11-11-11---2-2-2-4-4-6-6---
  E:--2\0-00-  -/9--9--9--9--9--9--9--9----0-0-0-2-2-4-4---
  
  Verse:
      C#5
  e:------------------------------------
  B:------------------------------------
  G:------------------------------------
  D:--11-11-11-11-11-11-11-11-11-11-11--
  A:--11-11-11-11-11-11-11-11-11-11-11--
  E:--9--9--9--9--9--9--9--9--9--9--9---
      ^                       ^  
      C#5                       Cb5 
  e:-----------------------------------------
  B:-----------------------------------------
  G:-----------------------------------------
  D:--11-11-11-11-11-11-11-11-11\9/11-11-11--
  A:--11-11-11-11-11-11-11-11-11\9/11-11-11-- 
  E:--9--9--9--9--9--9--9--9--9-\7/9--9--9---
      ^                       ^
  
  
  Then comes this part:
        E5         Cb5   F#5         C#5
  e:--------0----------------------------------
  B:---------0--------------------------------- After the second
  G:------------------------------------------- time they play 
  D:----2------2----9-9--4--4-4-4--4/11-11-11-- this, go to the
  A:----2-----------9-9--4--4-4-4--4/11-11-11-- chorus...
  E:----0-----------7-7--2--2-2-2--2/9--9--9---  
  
  Chorus:
     Cb5 C#5
  e:-------------------------------------------
  B:------------------------------------------- the rythm is way
  G:------------------------------------------- off here, but 
  D:--9/11-11--9/11-11--9/11--9/11-11--9/11-11- you get the idea
  A:--9/11-11--9/11-11--9/11--9/11-11--9/11-11-
  E:--7/9--9---7/9--9---7/9---7/9--9---7/9--9--
  
         E5            Cb5   F#5
  e:-------0--------------------------------------------------
  B:--------0-------------------------------------------------
  G:----------------------------------------------------------
  D:----2-----2--------9-9--4--4-4-4---9/11-11--9/11-11--9/11- 
  A:----2--------------9-9--4--4-4-4---9/11-11--9/11-11--9/11-
  E:----0--------------7-7--2--2-2-2---7/9--9---7/9--9---7/9--
    
      A#5           F#5
  e:---------------------------------------------------
  B:---------------------------------------------------
  G:---------------------------------------------------
  D:--6-6-6-6-6-6-6-4-4-4-4-4-4-4-4--9/11-11--9/11-11--
  A:--6-6-6-6-6-6-6-4-4-4-4-4-4-4-4--9/11-11--9/11-11--
  E:--4-4-4-4-4-4-4-2-2-2-2-2-2-2-2--7/9--9---7/7--9---
  
  e:----------------------------------------------------
  B:----------------------------------------------------
  G:----------------------------------------------------
  D:--6-6-6-6-6-6-6-6-4-4-4-4-4-4-4-4-2-2-2-2-2-2-2-2---
  A:--6-6-6-6-6-6-6-6-4-4-4-4-4-4-4-4-2-2-2-2-2-2-2-2---
  E:--4-4-4-4-4-4-4-4-2-2-2-2-2-2-2-2-0-0-0-0-0-0-0-0---
     
  e:-------------------------------------
  B:-------------------------------------
  G:-------------------------------------                      
  D:--4-4-4--4/5--5-5--/6-6-6-6-6-6-6-6--
  A:--2-2-2--2/3--3-3--/4-4-4-4-4-4-4-4-- 
  E:-------------------------------------





Comments


Popular Herrick Dave tabs & chords
Axes Tabs
Dead End Tabs
Hearing Things Tabs
Kick The Walrus Tabs
My Basement Room Tabs
One Tabs
Record Tabs
The Beast House Tabs
Vitamin A Tabs
Window Tabs


Song lyrics



↑ Back to top | Tablatures and chords are parodies/interpretations of the original songs. You may use it for private study, scholarship, research or language learning purposes only
© 2014 AZChords.com Contact us | Privacy policy | DMCA | Add/correct tabs | Request tabs | Top 50 tabs