>
 >
Last In Line

Last In Line Guitar Tabs

Herrick Dave - Last In Line chords, tabs, tablatures, lyrics

Guitar lessons | Add/correct | Request | Top 50 tabs Artists:  A B C D E F G H I J K L M N O P Q R S T U V W X Y Z 0-9

Last In Line Guitar Tabs – Herrick Dave

CD, Sheet music, Poster

Do you like Last In Line? Share with your friends now
Tabs
Dave Herrick - Last In Line

It is primary a bass song, but which one isnt?


e--2--------2--------2--------3--------2---------------|
b--0-5p4p0--0-5p4p0--0-5p4p0--x-6p5p0--0-5p4p0---------|
g--3--------3--------3--------4--------3-------2-------|
d------------------------------------------------------|
a------------------------------------------------------|
e------------------------------------------------------|

IntroB:

         Em
e-------7-7-7-------7-7-7-------7-7-7-7-----7-7-7-------------------------------------------------------|
b-------8-8-8-------8-8-8-------8-8-8-8-----8-8-8-------------------------------------------------------|
g-------9-9-9-------9-9-9-------9-9-9-9-----9-9-9-------------------------------------------------------|
d-------9-9-9-------9-9-9-(x8)--9-9-9-9-----9-9-9-(do that as needed, hey I aint countin,too confusing!-|
a-------7-7-7-------7-7-7-------7-7-7-7-----7-7-7-------------------------------------------------------|
e--0-0---------0-0----------------------0-0-------------------------------------------------------------|
                               tempo is changed and yeah, ARGH tricky at first!

    D  E           Em
e---------:------7-7-7-------7-7-7---------------------------------|
b---------:------8-8-8-------8-8-8---------------------------------|
g--7-7-9--:------9-9-9-------9-9-9---------------------------------|
d--7-7-9--:------9-9-9-------9-9-9-(play this section as needed)---|
a--5-5-7--:------7-7-7-------7-7-7---------------------------------|
e---------:-0-0---------0-0----------------------------------------|

  Em     D   E        D   E
e--7----------------------------|
b--8----------------------------|
g--9---7-7-7-9------7-7-7-9-----|
d--9---7-7-7-9------7-7-7-9-----|
a--7---5-5-5-7------5-5-5-7-----|
e-------------------------------|


Verse:
   Em      Em+double sharp   D   C     (p.s, I can`t remember the name of that Em d# chord!)
e--7-7-7-7-7--7--7-7--------------------------|
b--8-8-8-8-10-10-8-8--------------------------|
g--9-9-9-9-7--7--9-9--------7-7--5---7-7--5---|
d--9-9-9-9-9--9--9-9--------7-7--5---7-7--5---|(x2)
a--7-7-7-7-7--7--7-7--------5-5--3---5-5--3---|
e---------------------------------------------|


  Cm                  D
e----3--------------------------|
b------4---4-----------7--------|
g------------5-------------7----|
d--------5-----5---------7------|(x3)
a-3---------------3--5-------5--|
e-------------------------------|
  

    D           B
e-------------------------------|
b-------------------------------|
g--7-7-7-6-4-2-4-4---4-4-4------|
d--7-7---------4-4---4-4-4------|
a--5-5---------2-2---2-2-2------|
e-------------------------------|

IntroB *play as many times at needed,not as many a previously played before though.*

Chorus:

   C             G                                                            B
e--0-0-0-0-0-0--3-3-3-3-3-3-------------------------|      Fill:e----------------------------|
b--5-5-5-5-5-5--3-3-3-3-3-3-------------------------|           b----------0---2h3p2---------|
g--5-5-5-5-5-5--4-4-4-4-4-4-------------------------|           g--5-3-2-0---0-------2---4-4-|
d--2-2-2-2-2-5--5-5-5-5-5-5-------------5-6~--(x2)--|           d----------------------3-4-4-|
a--3-3-3-3-3-3--5-5-5-5-5-5---5-7-8~--8-------------|           a------------------------2-2-|
e---------------3-3-3-3-3-3-------------------------|           e----------------------------|





Comments


Popular Herrick Dave tabs & chords
Axes Tabs
Beware Of Disneyland Tabs
Blue Skies Tabs
Ears Of The Cat Tabs
In Heat Tabs
Load Bearing Tabs
Neighbors Tabs
Player Tabs
Roadrunner Tabs
X-Rated Tabs


Song lyrics



↑ Back to top | Tablatures and chords are parodies/interpretations of the original songs. You may use it for private study, scholarship, research or language learning purposes only
© 2014 AZChords.com Contact us | Privacy policy | DMCA | Add/correct tabs | Request tabs | Top 50 tabs