>
 >
Dead End

Dead End Guitar Tabs

Herrick Dave - Dead End chords, tabs, tablatures, lyrics

Guitar lessons | Add/correct | Request | Top 50 tabs Artists:  A B C D E F G H I J K L M N O P Q R S T U V W X Y Z 0-9

Dead End Guitar Tabs – Herrick Dave

CD, Sheet music, Poster

Do you like Dead End? Share with your friends now
Tabs
Dave Herrick - Dead End

e------------------------------------|
b------------------------------------|
g-----8---------8--------8-------8---|
d---8---8-----8---8----8---8---8---8-|
a-6---------8--------9-------9-------|
e------------------------------------|
 

                    
e-------------------------------|
b-------------------------------|
g------8-------8----------------|
d----8---8---8---8-9--9--9------|
a--6---------------9--9--9------|
e----------6-------7--7--7------|
 


e----------------------------------------|
b----------------------------------------|
g--8--8--8-------------------------------|
d--8--8--8--8--8--8--9--9--9--9--9--9----|
a--6--6--6--8--8--8--9--9--9--9--9--9----|
e-----------6--6--6--7--7--7--7--7--7----|


e--------5----------------0---------0---|
b-----3--------3-------3---------3------|
g--4--------4-------4---------4---------|
d---------------------------------------|
a---------------------------------------|
e---------------------------------------|

             
e-----------------------|
b-----------------------|
g-----------------------|
d--9--9--9-9-9-9-9-9-9--|
a--9--9--9-9-9-9-9-9-9--|
e--7--7--7-7-7-7-7-7-7--|

     
e--7--7--7--7--7-7-----------------------------------|
b--8--8--8--8--8-8-----------------------------------|
g--9--9--9--9--9-9--5-5-5-5--------------------------|
d--9--9--9--9--9-9--5-5-5-5--5--5--5--5--5--5--5--5--|
a--7--7--7--7--7-7--3-3-3-3--5--5--5--5--5--5--5--5--|
e----------------------------3--3--3--3--3--3--3--3--|
 
      
e--3-------------------------------:-3-3------3------|
b--3-------------------------------:-3----3------3---|
g--4----------4-4-4-4-4--5-5-5-5-5-:-4-----5------5--|
d--5-5-5-5-5--4-4-4-4-4--5-5-5-5-5-:-5----5-5----5---|
a--5-5-5-5-5--2-2-2-2-2--3-3-3-3-3-:-5--5---5--5-----|
e--3-3-3-3-3-----------------------:-3------3--------|
                             


2nd Verse:

e----------------------------------------|
b----------------------------------------|
g------8---------------------------------|
d----8---8-----8----9--9--9--9--9--9-----|
a--6---------8---8--9--9--9--9--9--9-----|
e----------6--------7--7--7--7--7--7-----|

   
e----------------------------------------|
b----------------------------------------|
g--8--8--8-------------------------------|
d--8--8--8--8--8--8--9--9--9--9--9--9----|
a--6--6--6--8--8--8--9--9--9--9--9--9----|
e-----------6--6--6--7--7--7--7--7--7----|


e--------5----------------0---------0---|
b-----3--------3-------3---------3------|
g--4--------4-------4---------4---------|
d---------------------------------------|
a---------------------------------------|
e---------------------------------------|


            
e--------------------|
b--------------------|
g--4-4-4-4-4-4-4-4-4-|
d--4-4-4-4-4-4-4-4-4-|
a--2-2-2-2-2-2-2-2-2-|
e--------------------|


e--0--0--0--0--0-0-|
b--8--7--6--5--4-4-|
g------------------|
d------------------|(x4)
a------------------|
e------------------|


e--------(7)-----:---------5--------------3--------5-|
b-----(7)--------:------3-----3--------3--------5----|
g--(7)-----------:----4-----4-------0--------2-------|
d----------------:-----------------------------------|(x6)
a----------------:-----------------------------------|
e----------------:-----------------------------------|
      
e---------------------------------------|
b---------------------------------------|
g--4--4--4---4--4--4-----------2--2--2--|
d--4--4--4---4--4--4--5--5--5--2--2--2--|(x2)
a--2--2--2---2--2--2--5--5--5--0--0--0--|
e---------------------3--3--3-----------|

      B
e-------------------|
b-------------------|
g--4-4-4--4-4-4-4-4-|
d--4-4-4--4-4-4-4-4-|
a--2-2-2--2-2-2-2-2-|
e-------------------|


Solo:

e--------------------------------:---------------------|
b-------------------7-7---7------:--------------7-7-7-7|
g----2-------s7-----6-6-7-6--4--2:--2-----s7----6-6-6-6|
d-0----2--0-------4--------------:0---2-0-----4--------|
a--------------------------------:---------------------|
e--------------------------------:---------------------|

e-------------------0----------------------------|
b--5----------------0----------------------------|
g--4--9--11-12-----12--12--11--9--7-7777777777---|
d--2--x--x--x-------x---x---x--x--x-xxxxxxxxxx---|
a--2--7--9--10-----10--10---9--7--5-5555555555---|
e--0---------------------------------------------|


e-------------------0------------------9-9-7--8-8-8-7-|
b--5----------------0------------------8-8-8--8-8-8-8-|
g--4--9--11-12-----12--12--11--9--7-7--7-7-7--7-7-7-7-|
d--2--x--x--x-------x---x---x--x--x-x-----------------|
a--2--7--9--10-----10--10---9--7--5-5-----------------|
e--0--------------------------------------------------|
      G         B         C         G
e--3-------------------------------:-3-3------3------|
b--3-------------------------------:-3----3------3---|
g--4----------4-4-4-4-4--5-5-5-5-5-:-4-----5------5--|
d--5-5-5-5-5--4-4-4-4-4--5-5-5-5-5-:-5----5-5----5---|
a--5-5-5-5-5--2-2-2-2-2--3-3-3-3-3-:-5--5---5--5-----|
e--3-3-3-3-3-----------------------:-3------3--------|


Outro:

   D#
e--------------------|
b------4--------4----|
g----3--------3------|
d--1-----1--1-----1--| 
a--------------------|
e--------------------|





Comments


Popular Herrick Dave tabs & chords
After I Wake Tabs
Axes Tabs
Blue Skies Tabs
Ghost Train Tabs
Grape Juice Tabs
Kick The Walrus Tabs
Load Bearing Tabs
Nerds Tabs
One Tabs
Yellow Crayon Tabs


Song lyrics



↑ Back to top | Tablatures and chords are parodies/interpretations of the original songs. You may use it for private study, scholarship, research or language learning purposes only
© 2014 AZChords.com Contact us | Privacy policy | DMCA | Add/correct tabs | Request tabs | Top 50 tabs