>
 >
Beware Of Disneyland

Beware Of Disneyland Guitar Tabs

Herrick Dave - Beware Of Disneyland chords, tabs, tablatures, lyrics

Guitar lessons | Add/correct | Request | Top 50 tabs Artists:  A B C D E F G H I J K L M N O P Q R S T U V W X Y Z 0-9

Beware Of Disneyland Guitar Tabs – Herrick Dave

CD, Sheet music, Poster

Do you like Beware Of Disneyland? Share with your friends now
Tabs
Dave Herrick - Beware of Disneyland

Dave Herrick $ Dave Lordson
Beware of Disneyland
Red Zebra

|--------|-----------------------|---------------------------------------|
|--------|-----------------------|-----------------7/8\7-----------------|
|--------|-----------------------|-----------------7/8\7-----------------|
|--------|--------7---6-5---4----|--------7---6----7/8\7-----------------|
|-12\\---|-0--0-0---0-----0------|-0--0-0---0---0------------------------|
|--------|-----------------------|---------------------------------------|

  .  . .   .     . tr    .  . .       .
|---------------------|------------------------||
|---------------------|------------------------||
|---------------------|---------------------||
|--------7---6-5---4--|---------5/6/7----------||
|-0--0-0---0-----0----|--0--0-0-3/4/5-0--------||
|---------------------|------------------------||

  Fig.A            tr                             . 
. .   .     . tr
|---------------------|--------------------------|-----------------------|
|---------------------|----------------7/8\7-----|-----------------------|
|---------------------|----------------7/8\7-----|-----------------------|
|--------7---6-5---4--|--------7---6---7/8\7-----|--------7---6-5---4----|
|-0--0-0---0-----0----|-0--0-0---0---0-----------|-0--0-0---0-----0------|
|---------------------|--------------------------|-----------------------|

Here the two guitars do this arpeggio, but one it is
an eighth above.
|-------------------------||
|--------5----------------||
|------4---4--------------||
|----6-------6------------||
|-/7-----------7-------\--||
|-------------------------||

 Fig.B
  .  . .   .     . tr   .  . .   .   .
|---------------------|------------------------|-----------8-8--8-8--8---|
|---------------------|------------------------|-----------7-7--7-7--7---|
|---------------------|------------------------|-7--5--7---7-7--7-7--7---|
|--------7---6-5---4--|--------7---6---4^5--5--|-7--5--7-----------------|
|-0--0-0---0-----0----|-0--0-0---0---0------3--|-5--3--5-----------------|
|---------------------|------------------------|-------------------------|

                           .  . .   .     . tr   .  .
.   .   .     
|-----------8-8--8-8--8--|---------------------|------------------------||
|-----------7-7--7-7--7--|---------------------|----------------7/8\7---||
|-7--5--7---7-7--7-7--7--|---------------------|----------------7/8\7---||
|-7--5--7----------------|--------7---6-5---4--|--------7---6---7/8\7---||
|-5--3--5----------------|-0--0-0---0-----0----|-0--0-0---0---0---------||
|------------------------|---------------------|------------------------||

  Chorus:
|------------|------------|---------|-----------------------------------||
|------------|------------|---------|-----------------------------------||
|---9------8-|--7-------8-|--9---7--|--5-5-5--5-5-5--7------------------||
|---9------8-|--7-------8-|--9---7--|--5-5-5--5-5-5--7------------------||
|---7------6-|--5-------6-|--7---5--|--3-3-3--3-3-3--5----------/14\----||
|------------|------------|---------|-----------------------------------||

 Fig.C
  .  . .   .     . tr     .  . .   .   .            .
 . .   .     . tr
|----------------------|---------------------------|---------------------|
|----------------------|-------------------7/8\7---|---------------------|
|----------------------|-------------------7/8\7---|---------------------|
|--------7---6-5---4---|---------7---6-----7/8\7---|--------7---6-5---4--|
|-0--0-0---0-----0-----|--0--0-0---0---0-----------|-0--0-0---0-----0----|
|----------------------|---------------------------|---------------------|


|-------------------------||
|-------------------------||
|-------------------------||
|-------------------------||
|-0--0-0-7-0-6-0----||
|-------------------------||

  Bridge:
|--------------------|--------------5--5--5-5-5-5--||
|--------------------|--------------5--5--5-5-5-5--||
|-7---5---7---5------|--7---5-------6--6--6-6-6-6--||
|-7---5---7---5------|--7---5---7------------------||
|-5---3---5---3---0--|--5---3---7------------------||
|--------------------|----------5------------------||


                                   w/bar
  Slow Riff:                    ~~~~~~~~~~~~
|--------------------|-----------------------------|
|--------------------|-----------------------------|
|-7---5---7---5------|--7---5---9------------------|
|-7---5---7---5------|--7---5---9------------------|
|-5---3---5---3---0--|--5---3---7------------------|
|--------------------|-----------------------------|


|--------------------|----------------------|----------------------------|
|--------------------|----------------------|----------------------------|
|--9-----------------|*---------------------|--------------7-------------|
|--9------pick--\----|*-7-----5-5----5------|--7-----5-5---7-------------|
|--7------slide-\----|--7-----5-5----5------|--7-----5-5---5-------------|
|--------------------|--5---0-3-3--0-3^0-0--|--5---0-3-3-0---------------|


|----------------------|--------------------|----------------------------|
|----------------------|--------------------|----------------------------|
|----------------------|--------7-7----5---*|--7------5-5----5-----------|
|--7-----5-5----5------|--7-----7-7----5---*|--7------5-5----5-----------|
|--7-----5-5----5------|--7-----5-5-0--3----|--5----0-3-3--0-3^0-0-------|
|--5---0-3-3--0-3^0-0--|--5---0-------------|----------------------------|


|--------------------|----------------------|---------------------------||
|--------------------|----------------------|---------------------------||
|--7-----5-5---10----|----------------------|--------7-7----5-----------||
|--7-----5-5---10----|--7-----5-5----5------|--7-----7-7----5-----------||
|--5---0-3-3-/-8-----|--7-----5-5----5------|--7-----5-5----3-----------||
|--------------------|--5---0-3-3--0-3^0-0--|--5---0--------------------||


 Solo:
  1 ~~~~~~~~~~            ........-           ~~~
|-------------|-------13----------------------|-----20^19^17--20^19^17...-|
|-------------|--13-------13---13--13^10--13--|-22------------------------|
|-12----------|-------------------------------|---------------------------|
|-------------|-------------------------------|---------------------------|
|-------------|-------------------------------|---------------------------|
|-------------|-------------------------------|---------------------------|

                 1      .  . .    .       .        . 
. .   .             1
|---------------------|--------------------------|---------------22^20^17-20|
|-20^19^17------------|--------------------------|-------15---13------------|
|----------19^17-19---|--------14---13-12---11---|--------------------------|
|---------------------|--------------------------|--------------------------|
|---------------------|-0--0-0----0-------0------|-0--0-0---0---------------|
|---------------------|--------------------------|--------------------------|

  .  . .    .
|-------------------------|-4^0---2^0---4^0---2^0---4^0-2^0--------------|
|-------------------------|-----0-----0-----0-----0----------------------|
|--------14---13-12---14\-|----------------------------------------------|
|-------------------------|----------------------------------------------|
|-0--0-0----0-------------|----------------------------------------------|
|-------------------------|----------------------------------------------|


|-7^0---6^0---7^0---6^0---7^0-6^0--|--10^0---9^0---10^0---9^0---10^0-9^0-|
|-----5-----5-----5-----5----------|-------9-----9------9-----9----------|
|----------------------------------|-------------------------------------|
|----------------------------------|-------------------------------------|
|----------------------------------|-------------------------------------|
|----------------------------------|-------------------------------------|

                               1
|-16^0----14^0----16^0----14^0-17--||
|------15------15------15----------||
|----------------------------------||
|----------------------------------||
|----------------------------------||
|----------------------------------||


  Happy part:
|----------------|--------------------|-----------------|----------------|
|----------------|--------------------|-----------------|----------------|
|-7-5---11--7-5--|--7-5--11----12-11--|--7-5---11---7-5-|-2-0---6---2-0--|
|----------------|--------------------|-----------------|----------------|
|----------------|--------------------|-----------------|----------------|
|----------------|--------------------|-----------------|----------------|


|----------------|--------------------|-----------------|---------------||
|----------------|--------------------|-----------------|---------------||
|-7-5---11---7-5-|--7-5--11---12-11---|--7-5---11---7-5-|-9---9---9\----||
|----------------|--------------------|-----------------|-9---9---9\----||
|----------------|--------------------|-----------------|-7---7---7\----||
|----------------|--------------------|-----------------|---------------||

  End:
|------------------------||
|-8-7-5----5-------------||
|-------7----8-7-5-------||
|---------------------||
|------------------------||
|------------------------||





Comments


Popular Herrick Dave tabs & chords
Axes Tabs
Blue Skies Tabs
Grape Juice Tabs
Jackass Tabs
Neighbors Tabs
Nerds Tabs
Nib Tabs
Seed Tabs
Window Tabs
Zebra Jack Tabs


Song lyrics



↑ Back to top | Tablatures and chords are parodies/interpretations of the original songs. You may use it for private study, scholarship, research or language learning purposes only
© 2014 AZChords.com Contact us | Privacy policy | DMCA | Add/correct tabs | Request tabs | Top 50 tabs