» » »

Hepburn, I Quit Bass tabs (ver.1)

Artists:  A B C D E F G H I J K L M N O P Q R S T U V W X Y Z # 

I Quit Bass tabs (ver.1)

Hepburn Tabs
Rating:
0/5 (0 votes)
I Quit lessons Tabs too difficult? Try these video lessons and learn fast
                Hepburn

Bass Tab

Tuning: Drop D DADG

Refrain 1:
G|-------------8---8-|-----------------|
D|-6--6----------6---|-----------------|
A|-------------------|-8--8--3--3--4-4-|
D|-------8--8--------|-----------------|
          x2

Chorus:
G|----------------------------------------------------------------8-|
D|-------------------------1---1----------------------------3--5----|
A|---------1-1-1-1-3-3-3-3-----------------1-1-1-1-3--5--6----------|
D|-6-6-6-6-------------------1---1/6-6-6-6--------------------------|
then
G|-------------------------------------------------------------------|
D|-------------------------1---1---------3---3-----------3---3-------|
A|---------1-1-1-1-3-3-3-3-------------------------------------------|
D|-6-6-6-6-------------------1---1/6---3---3-----1/6---3---3-----1/6-|

Interlude:
G|---------------------------------|
D|---------1---1-----------6-6---6-|
A|-3-3-3-3-------------6-6---------|
D|-----------1---1-6-6---------6---|

Verse 2:
G|---------------------------------------------------------------|
D|-1--1----1--1---1------1--1-----1--1/5--6--6--------6--6-------|
A|-------------------1h3-----------------------------------------|
D|-------1------1---------------1---------------6--6---------6/8-|
then
G|--------------------------------------------------------------------------|
D|-1--1----1--1---1------1--1-----1----------6--5--3--1---------5--3--1---1-|
A|-------------------1h3----------------------------------------------------|
D|-------1------1---------------1-----6---6--------------6---6----------1---|

Refrain 2:
G|--------------------------|-----------------------------------|
D|------------------6---6---|-----------------------------------|
A|--------------------------|---------3-3-3-3-4-4-4-4-4-4-4-4-4-|
D|-6--6--8--8--6--6---6---6-|-3-3-3-3---------------------------|

(Repeat Chorus)

Bridge:                           2:26 this bar
G|-------------------------------|---6---6\1-|-----------------|----------------------------|
D|---8---8---6---6---8---8---6---|-8---8-----|-----------------|----------------------------|
A|-----------------------------6-|-----------|-------------6-6-|---------1-1-1---1/13-13-13-|
D|-8---8---8---8---8---8---6-----|-----------|-8-8-8-8-6-6-----|-5-5-5-5-------1------------|

Refrain 3: I'm so sorry I can't be your mother
G|-----------------------------------|
D|-----------------------------------|
A|---------3-3-3-3-4-4-4-4-4-4-4-4-4-|
D|-3-3-3-3---------------------------|

(Repeat Chorus twice)

Outro:
G|---6--|
D|------|
A|-4----|
D|------|
            

comments powered by Disqus
↑ Back to top | Hepburn Bass for I Quit. Lyrics for acoustic guitar and electric guitar. Tablatures and chords are parodies/interpretations of the original songs. You may use it for private study, scholarship, research or language learning purposes only