» » »

Hepburn, Deep Deep Down Bass tabs (ver.1)

Artists:  A B C D E F G H I J K L M N O P Q R S T U V W X Y Z # 

Deep Deep Down Bass tabs (ver.1)

Hepburn Tabs
 Rating:
4/5 (4 votes)
Deep Deep Down lessons Tabs too difficult? Try these video lessons and learn fast
1
                Hepburn

Bass Tab

Intro: 0:08
G|-------6-6-------6/8-8---------6-6-------6-----|
D|-6/8---------------------6/8---------------6\4-|
A|-----------------------------------------------|
E|-------------2-----------------------2---------|

Verse 1:
G|-------6-6---------5-5---8-----5-5---8------5---5---3/6-|
D|-6/8-------------3-----------3------------3---3---------|
A|--------------------------------------------------------|
E|-------------2------------------------------------------|
then
G|-------6-6---------5-5---8-----5-5---8------5---5---8-8-8-8-8-8-8-8-8-|
D|-6/8-------------3-----------3------------3---3-----------------------|
A|----------------------------------------------------------------------|
E|-------------2--------------------------------------------------------|


Chorus 1:
G|-----10-8-----------10-8---------------8-8-8-8-8-6-5-1-|-----------------8-8-8-8-8-6-6-6-|
D|-8--------11-8-11--------11-10\4---3-------------------|-4-4-4-4-3-3-3-3-----------------|
A|-------------------------------------------------------|---------------------------------|
E|-------------------------------------------------------|---------------------------------|
                          x2

Verse 2: Same as Verse 1:

Chorus 2:
G|-----10-8-----------10-8---------------8-8-8-8-8-6-5-1-|-----------------8-8-8-8-8-6-6-6-|
D|-8--------11-8-11--------11-10\4---3-------------------|-4-4-4-4-3-3-3-3-----------------|
A|-------------------------------------------------------|---------------------------------|
E|-------------------------------------------------------|---------------------------------|
                          x2                                            x4

Outro:
G|-------6-6-------6/8-8-|
D|-6/8-------------------|
A|-----------------------|
E|-------------2---------|
  Repeat until fade out
            
Submit corrections

comments powered by Disqus
↑ Back to top | Hepburn Bass for Deep Deep Down. Lyrics for acoustic guitar and electric guitar. 1 Tablatures and chords are parodies/interpretations of the original songs. You may use it for private study, scholarship, research or language learning purposes only