» » »

Hepburn, Cold World Bass tabs (ver.1)

Artists:  A B C D E F G H I J K L M N O P Q R S T U V W X Y Z # 

Cold World Bass tabs (ver.1)

Hepburn Tabs
 Rating:
4/5 (4 votes)
Cold World lessons Tabs too difficult? Try these video lessons and learn fast
1
                Hepburn
cold World
1999

Key: G

Tuning: Standard EADG


Intro:
G|--------------------------------------7---7-9-----------|
D|----------7-9-7-----------7-9-7--7--9---9---------------|
A|-7--7--10--------7--7--10-------------------------------|
E|--------------------------------------------------------|
then                                                     (x8)
G|-------------------7------------------------7---7-9-----|
D|----------7-9-7--5---5----------7-9-7--7--9---9---------|
A|-7--7--10--------------7--7--10-------------------------|
E|--------------------------------------------------------|
then
G|-------0-2-4-2----7-------------------------7---7-9-|
D|----------------5---5-----------7-9-7--7--9---9-----|
A|-0--0------------------7--7--10---------------------| (x4)
E|----------------------------------------------------|

or you can also do this

G|---------------------------------------------------|
D|-------------------------------------------0---0-2-|
A|---------0-2-0-----5-----------0-2-0--0--2---2-----|
E|-0--0--3---------3---3-0--0--3---------------------|

Verses: Very fast here
G|-------------------------------0-|---------------------------------------------|
D|---------------------------2-----|-----2-----------------4---------------------|
A|-----------------2-------4---2---|-0-0---0-3-0-0---5-5-5---7-5-5-----------4---| (x2)
E|-0-0-0-0-3-0-0-0---0-0-0---------|---------------3---------------0-0-0-3-0---0-|
               x2


Refrain: Still fast
G|-------------------------------------------------|
D|---------2-----------4---------------------------|
A|-0-0-0-3---0-0-5-5-5---7-5-5-----------4-0---0---| (x2)
E|-----------------------------0-0-0-3-0-----0---0-|
            
Submit corrections

comments powered by Disqus
↑ Back to top | Hepburn Bass for Cold World. Lyrics for acoustic guitar and electric guitar. 1 Tablatures and chords are parodies/interpretations of the original songs. You may use it for private study, scholarship, research or language learning purposes only