>
 >
Moon River

Moon River Guitar Tabs

Henry Mancini - Moon River chords, tabs, tablatures, lyrics

Guitar lessons | Add/correct | Request | Top 50 tabs Artists:  A B C D E F G H I J K L M N O P Q R S T U V W X Y Z 0-9

Moon River Guitar Tabs – Henry Mancini

CD, Sheet music, Poster

Do you like Moon River? Share with your friends now
ChordsChords v2Chords v3Chords v4Chords v5Chords v6TabsUkulele
E-|---Song:-Moon-River-----------------------------|
A-|---Composer:-Henry-Mancini----------------------|
D-|---Transcription-by:Christian Liang-------------|
E-|---Enjoy!---------------------------------------|

======
Legend
======
Right
p = pulgar = thumb
i = indice = index
m = medio = middle
a = anular = ring

Left
p = pull off
h = hammer on
/ = slide
= = suspend/hold Note
II2 = Barre at fret 2 bottom 2 strings

Tips
See Below

==========================================================================
                    Moon River by Henry Mancini 
==========================================================================


[1]
                         IV4...............
E|--0================-|--7-----5-----------|--4=======-2--0-----|
B|-----------2--------|--------------7-----|--------3--------3--|
G|--------1-----1-----|-----6-----6-----6--|-----2--------------|
D|-----2-----------2--|--4================-|--0==========-0-----|
A|--0================-|--------------------|--------------------|
E|--------------------|--------------------|--------------------|
 |  |  |  |  |  |  |  |  |  |  |  |  |  |  |  |  |  |  |  |  |  |    
R   a  i  m  a  m  i     a  i  a  i  m  i     a  i  m  a  a  m  
    p                    p                    p           p

L      2  1  3  1  2     4  3  2  3  4  3     4  1  3  2     3
                         1

[4]
E|--0================-|--4=======-2--0-----|--0================-|
B|-----------0--------|--------3--------3--|-----------0--------|
G|--------2-----2-----|-----2--------------|--------1-----2-----|
D|-----2-----------2--|--0==========-0-----|-----2-----------2--|
A|--4================-|--------------------|--4================-|
E|--------------------|--------------------|--------------------|
 |  |  |  |  |  |  |  |  |  |  |  |  |  |  |  |  |  |  |  |  |  |  
R   a  i  m  a  m  i     a  i  m  a  a  m     a  i  m  a  m  i
    p                    p           p        p

L   4  1  2     2  1     4  1  3  2     3     4  2  1     1  2




[7]
E|--------------------|--------------2--1--|--0================-|
B|--0--------3--------|-(0)-------3--------|-----------2--------|
G|--------2-----2-----|--------1-----------|--------1-----1-----|
D|-----4-----------4--|-----2--------------|-----2-----------2--|
A|--------------------|--------------------|--0================-|
E|--4================-|--0================-|--------------------|
 |  |  |  |  |  |  |  |  |  |  |  |  |  |  |  |  |  |  |  |  |  |  
R   a  i  m  a  m  i     p  i  m  a  m  i     a  i  m  a  m  i
    p                                         p

L   3  4  1  2  1  4        2  1  4  3  2        2  1  3  1  2




[10]IV4...............
E|--7-----5-----------|--4--------2--0-----|--0================-|
B|--------------7-----|--------3--------3--|-----------0--------|
G|-----6-----6-----6--|-----2--------------|--------2-----2-----|
D|--4================-|--0==========-0-----|-----2-----------2--|
A|--------------------|--------------------|--4================-|
E|--------------------|--------------------|--------------------|
 |  |  |  |  |  |  |  |  |  |  |  |  |  |  |  |  |  |  |  |  |  |  
R   a  i  a  i  m  i     a  i  m  a  a  m     a  i  m  a  m  i
    p                    p           p        p

L   4  3  2  3  4  3     4  1  3  2     3     4  1  2     2  1
    1




[13]
E|--4=======-2--0-----|--0================-|--------------------|
B|--------3--------3--|-----------0--------|--0--------3--------|
G|-----2--------------|--------1-----2-----|--------2-----2-----|
D|--0==========-0-----|-----2-----------2--|-----4-----------4--|
A|--------------------|--4================-|--------------------|
E|--------------------|--------------------|--4================-|
 |  |  |  |  |  |  |  |  |  |  |  |  |  |  |  |  |  |  |  |  |  |  
R   a  i  m  a  a  m     a  i  m  a  m  i     a  i  m  a  m  i
    p           p        p                    p

L   4  1  3  2     3     4  2  1     1  2     3  4  1  2  1  4






[16]                     II................
E|--------------------|--------------------|--0==========-------|
B|-(0)----------2--0--|--------------------|--------2--------0--|
G|--------1-----------|--2=======-2--------|--------0-----------|
D|-----3-----3--------|--------4-----4-----|-----2-----2--------|
A|--4================-|-----4-----------4--|--0==========-4--0--|
E|--------------------|--2================-|--------------------|
 |  |  |  |  |  |  |  |  |  |  |  |  |  |  |  |  |  |  |  |  |  |  
R   p  i  m  i  a  a     a  i  m  a  m  i     a  i  a  i  p  a
                         p                    p     m        p

L   4  3  1  3  2        1  3  4  1  4  3        2  3  2  4
                         1



[19]
E|-----------2--------|--0-----------------|--------------0-----|
B|--------3-----3-----|--------2--------0--|--------2-----------|
G|--2=========--------|--------0-----1-----|--2--------------2--|
D|-----0-----------0--|-----2-----2--------|-----4-----2--------|
A|--------------------|--4================-|--------------4-----|
E|--2================-|--------------------|--2====-0==========-|
 |  |  |  |  |  |  |  |  |  |  |  |  |  |  |  |  |  |  |  |  |  |  
R   m  i  m  a  m  i     a  p  m  p  i  m     m  i  m  i  a  i
    p                    p     i              p     p     p

L   1     3  2  3        4  2  3  2  1        2  4  2  1  3  1
    T                                         1


[22]II5...IV.............IV5...II.............II5.........
E|--5====-4=======----|--4====-2====-------|--2====-------1====-|
B|--------4=======-7--|--5====-2====-5-----|--3====----3--0====-|
G|--------5====-5-----|--4====-3====----2--|--2====-2-----1====-|
D|-----4-----6--------|-----6-----4--------|-----4--------0====-|
A|--2====-------------|--4====-------------|--2===========------|
E|--------4========---|--------2==========-|--------------------|
 |  |  |  |  |  |  |  |  |  |  |  |  |  |  |  |  |  |  |  |  |  |  
R   a  i  a  i  m  a     a  i  a  i  a  m     a  i  m  a  a
    p     m              m     m              m           m
          i              i     i              i           i
          p              p     p              p           p

L   4  3  1  3  2  4     1  3  1  3  4  1     1  3  1  2  2
    1     1              2     1              2           1
          2              1     2              1
          1              1     1              1

[25]                     IV4...............
E|--0================-|--7-----5-----------|--4--------2--0-----|
B|-----------2--------|--------------7-----|--------3--------3--|
G|--------1-----1-----|-----6-----6-----6--|-----2--------------|
D|-----2-----------2--|--4================-|--0==========-0-----|
A|--0================-|--------------------|--------------------|
E|--------------------|--------------------|--------------------|
 |  |  |  |  |  |  |  |  |  |  |  |  |  |  |  |  |  |  |  |  |  |  
R   a  i  m  a  m  i     a  i  a  i  m  i     a  i  m  a  a  m  
    p                    p                    p           p

L      2  1  3  1  2     4  3  2  3  4  3     4  1  3  2     3




[28]
E|--0================-|--4=======-2--0-----|--0================-|
B|-----------0--------|--------3--------3--|-----------0--------|
G|--------2-----2-----|-----2--------------|--------1-----2-----|
D|-----2-----------2--|--0==========-0-----|-----2-----------2--|
A|--4================-|--------------------|--4================-|
E|--------------------|--------------------|--------------------|
 |  |  |  |  |  |  |  |  |  |  |  |  |  |  |  |  |  |  |  |  |  |  
R   a  i  m  a  m  i     a  i  m  a  a  m     a  i  m  a  m  i
    p                    p           p        p

L   4  1  2     2  1     4  1  3  2     3     4  2  1     1  2




[31]
E|--------------------|--------------2--1--|--0================-|
B|--0=======-3--------|-(0)-------3--------|-----------2--------|
G|--------2-----2-----|--------1-----------|--------1-----1-----|
D|-----4-----------4--|-----2--------------|-----2-----------2--|
A|--------------------|--------------------|--0================-|
E|--4================-|--0================-|--------------------|
 |  |  |  |  |  |  |  |  |  |  |  |  |  |  |  |  |  |  |  |  |  |  
R   a  i  m  a  m  i     p  i  m  a  m  i     a  i  m  a  m  i
    p  

L   3  4  1  2  1  4        2  1  4  3  2        2  1  3  1  2


[34]IV4...............
E|--7-----5-----------|--4=======-2--0-----|--0================-|
B|--------------7-----|--------3--------3--|-----------0--------|
G|-----6-----6-----6--|-----2--------------|--------2-----2-----|
D|--4================-|--0==========-0-----|-----2-----------2--|
A|--------------------|--------------------|--4================-|
E|--------------------|--------------------|--------------------|
 |  |  |  |  |  |  |  |  |  |  |  |  |  |  |  |  |  |  |  |  |  |  
R   a  i  a  i  m  i     a  i  m  a  a  m     a  i  m  a  m  i
    p                    p           p        p

L   4  3  2  3  4  3     4  1  3  2     3     4  1  2     2  1
    1


[37]                                          II5.............
E|--4=======-2--0-----|--0================-|--5================-|
B|--------3--------3--|-----------0--------|-----------3--------|
G|-----2--------------|--------1-----2-----|--------2-----------|
D|--0==========-0====-|-----2-----------2--|-----4--------------|
A|--------------------|--4================-|--2===========------|
E|--------------------|--------------------|--------------2--1--|
 |  |  |  |  |  |  |  |  |  |  |  |  |  |  |  |  |  |  |  |  |  |  
R   a  i  m  a  a  m     a  i  m  a  m  i     a  i  m  a  p  p
    p           p        p                    p

L   4  1  3  2     3     4  2  1     1  2     4  3  1  2  2  1
                                              1

[40]VII3..............
E|--10----7-----9-----|-----9-----7-----5-----4--------2-----|
B|--9-----------------|--10----9-----7-----5-----3-----------|
G|--7-----------------|--------------------------------------|
D|--------------------|--------------------------------------|
A|--------------------|--------------------------------------|
E|--0================-|--------------------------------------|
 |  |  |  |  |  |  |  |  |  |  |  |  |  |  |  |  |  |  |  |  |  
R   a     m     i        p  i  p  i  p  i  p  i  p     i
    m
    i
    p

L   4     1     3        2  1  3  1  3  1  2  1  2     1
    3
    1

[42]
    II3...............
E|--4================-|
B|--2================-|
G|--2================-|
D|--------------------|
A|--0================-|
E|--------------------|
 |  |  |  |  |  |  |  | 
R   a
    m
    i 
    p

L   4
    1
    1


====
Tips
==========================================================================
Bar[3]-[4].[11]-[12],
Transition is difficult with the pinky. After holding G#(e string 4 fret) 
for the first half of measure 3. Position pinky as close as possible (in mid air) 
to the A string. You will have to play the first note of the next bar with the 
pinky C#(A string 4th fret) and it can be hard to reach.

Bar[19]
F#/D. Thumb frets the E string at 2nd fret.

Bar[22]-[24]
Barre chords must be delivered in quick succession. Make sure you press 
down hard to sound the chordal notes. 





Comments


Popular Henry Mancini tabs & chords
Charade Chords
Moon River Chords
Moon River 4 Chords
Moon River 5 Chords
Baby Elephant Walk 1 Tabs
Charade Instrumental Tabs
Pink Panther Theme 1 Tabs
The Pink Panther Theme Tabs
Charade Ukulele
Moon River Ukulele


Song lyrics



↑ Back to top | Tablatures and chords are parodies/interpretations of the original songs. You may use it for private study, scholarship, research or language learning purposes only
© 2014 AZChords.com Contact us | Privacy policy | DMCA | Add/correct tabs | Request tabs | Top 50 tabs