» » »

Henley Don, Boys Of Summer Bass tabs (ver.1)

Artists:  A B C D E F G H I J K L M N O P Q R S T U V W X Y Z # 

Boys Of Summer Bass tabs (ver.1)

Henley Don Tabs
 Rating:
4/5 (4 votes)
Boys Of Summer lessons Tabs too difficult? Try these video lessons and learn fast
1
                DON HENLEY - "The Boys of Summer" - Bass Tab


INTRO:
        (x8)
|-----------|-8-------|---------|---------|---------|-4-------|
|*---------*|---------|---------|---------|---------|---------|
|*-r-r-r-r-*|---------|---------|---------|---------|---------|
|-----------|---------|---------|---------|---------|---------|
   1 2 3 4    1 2 3 4   1 2 3 4   1 2 3 4   1 2 3 4   1 2 3 4

|---------|---------|---------|-6-------|---------|---------|
|---------|---------|---------|---------|---------|---------|
|---------|---------|---------|---------|---------|---------|
|---------|---------|---------|---------|---------|---------|
  1 2 3 4   1 2 3 4   1 2 3 4   1 2 3 4   1 2 3 4   1 2 3 4 

|---------|-4-------|---------|---------|----------|
|---------|---------|---------|---------|----------|
|---------|---------|---------|---------|----------|
|---------|---------|---------|---------|-----11/--|
  1 2 3 4   1 2 3 4   1 2 3 4   1 2 3 4   1 2 3  4

1ST VERSE:
|---------|---------|---------|---------|---------|---------|
|---------|---------|---------|---------|---------|---------|
|-6-------|---------|---------|---------|-2-------|---------|
|---------|---------|---------|---------|---------|---------|
  1 2 3 4   1 2 3 4   1 2 3 4   1 2 3 4   1 2 3 4   1 2 3 4 

|---------|---------|---------|---------|---------|-----------|
|---------|---------|---------|---------|---------|-----------|
|---------|---------|-4-------|---------|---------|-----------|
|---------|---------|---------|---------|---------|-------2-4-|
  1 2 3 4   1 2 3 4   1 2 3 4   1 2 3 4   1 2 3 4   1 2 3 4 &

|---------|---------|---------|---------|
|---------|---------|---------|---------|
|-2-------|---------|---------|---------|
|---------|---------|---------|---------|
  1 2 3 4   1 2 3 4   1 2 3 4   1 2 3 4

CHORUS/END:
|---------|---------|---------|---------|---------|-----------|
|-4-------|---------|---------|---------|---------|-----------|
|---------|---------|-4-------|---------|-4-------|-----------|
|---------|---------|---------|---------|---------|-------4/2-|
  1 2 3 4   1 2 3 4   1 2 3 4   1 2 3 4   1 2 3 4   1 2 3 4 &

|---------|---------|---------|---------|---------|---------|
|---------|---------|---------|---------|---------|---------|
|-2-------|---------|---------|---------|-4-------|---------|
|---------|---------|-2-------|---------|---------|---------|
  1 2 3 4   1 2 3 4   1 2 3 4   1 2 3 4   1 2 3 4   1 2 3 4 

|---------|-----------|---------|----------|
|---------|-----------|---------|----------|
|-4-------|-----------|-2-------|----------|
|---------|-------4/2-|---------|-----11/--|
  1 2 3 4   1 2 3 4 &   1 2 3 4   1 2 3 4

PRE-SECOND VERSE:
|---------|---------|---------|-----------|---------|---------|
|---------|---------|---------|-----------|---------|---------|
|-6-------|---------|---------|-----------|-2-------|---------|
|---------|---------|---------|-------2-4-|---------|---------|
  1 2 3 4   1 2 3 4   1 2 3 4   1 2 3 4 &   1 2 3 4   1 2 3 4 

|---------|-4-------|---------|---------|-6-------|-----------|
|---------|---------|---------|---------|---------|-----------|
|---------|---------|-4-------|---------|---------|-------6h4-|
|---------|---------|---------|---------|---------|-----------|
  1 2 3 4   1 2 3 4   1 2 3 4   1 2 3 4   1 2 3 4   1 2 3 4 &

|---------|---------|---------|---------|
|---------|---------|---------|---------|
|-2-------|---------|---------|---------|
|---------|---------|---------|-----11/-|
  1 2 3 4   1 2 3 4   1 2 3 4   1 2 3 4 

SECOND VERSE:
|---------|---------|---------|-----------|---------|---------|
|---------|---------|---------|-----------|---------|---------|
|-6-------|---------|---------|-----------|-2-------|---------|
|---------|---------|---------|-------2/4-|---------|---------|
  1 2 3 4   1 2 3 4   1 2 3 4   1 2 3 4 &   1 2 3 4   1 2 3 4  

|---------|-----------|---------|-6-------|------/8\6-|-----------|
|---------|-----------|---------|---------|-----------|-----------|
|---------|-------2/6-|-4-------|---------|-----------|-----------|
|---------|-----------|---------|---------|-----------|-------2/4-|
  1 2 3 4   1 2 3 4 &   1 2 3 4   1 2 3 4   1 2 3 & 4   1 2 3 4 &

|---------|---------|---------|---------|
|---------|---------|---------|---------|
|-2-------|---------|---------|---------|
|---------|---------|---------|---------|
  1 2 3 4   1 2 3 4   1 2 3 4   1 2 3 4 

BRIDGE:
        (x8)                              (x4)
|-----------|------------------|--------------|----------|
|*---------*|*-.-.-----.-.-----|-.-.---.-.-.-*|-1--------|
|*-r-r-r-r-*|*-2-2-.-.-2-2-.-.-|-2-2-r-2-4-2-*|----------|
|-----------|------2-4-----2-4-|--------------|----------|
   1 2 3 4     1 & 2 & 3 & 4 &   1 & 2 & 3 4     1 2 3 4  

|---------|---------|-----------|---------|---------|-4-------|
|---------|---------|-----------|---------|---------|---------|
|---------|---------|-----------|-2-------|---------|---------|
|---------|---------|-------2h4-|---------|---------|---------|
  1 2 3 4   1 2 3 4   1 2 3 4 &   1 2 3 4   1 2 3 4   1 2 3 4

|-----------|---------|---------|-6-------|---------|---------|
|-----------|---------|---------|---------|---------|---------|
|-----2/6---|-4-------|---------|---------|---------|-2-------|
|-----------|---------|---------|---------|---------|---------|
  1 2 3 & 4   1 2 3 4   1 2 3 4   1 2 3 4   1 2 3 4   1 2 3 4

|---------|-4-------|----------|
|---------|---------|----------|
|---------|---------|----------|
|---------|---------|----------|
  1 2 3 4   1 2 3 4   1 2 3 4

THIRD VERSE:
|---------|---------|---------|---------|---------|---------|
|---------|---------|---------|---------|---------|---------|
|-6-------|---------|---------|---------|-2-------|-----r-r-|
|---------|---------|---------|-------4-|---------|---------|
  1 2 3 4   1 2 3 4   1 2 3 4   1 2 3 4   1 2 3 4   1 2 3 4  

|---------|-----------|---------|---------|-6-------|-----------|
|---------|-----------|---------|---------|---------|-----------|
|-r-r-r-r-|-r-r-r-2/6-|-4-------|---------|---------|-----------|
|---------|-----------|---------|---------|---------|-------2-4-|
  1 2 3 4   1 2 3 4 &   1 2 3 4   1 2 3 4   1 2 3 4   1 2 3 4 &

|---------|---------|---------|---------|
|---------|---------|---------|---------|
|-2-------|---------|-2-------|---------|
|---------|---------|---------|---------|
  1 2 3 4   1 2 3 4   1 2 3 4   1 2 3 4
            
Submit corrections

comments powered by Disqus
↑ Back to top | Henley Don Bass for Boys Of Summer. Lyrics for acoustic guitar and electric guitar. 1 Tablatures and chords are parodies/interpretations of the original songs. You may use it for private study, scholarship, research or language learning purposes only