>
 >
Why 1

Why 1 Guitar Tabs

Helloween - Why 1 chords, tabs, tablatures, lyrics

Guitar lessons | Add/correct | Request | Top 50 tabs Artists:  A B C D E F G H I J K L M N O P Q R S T U V W X Y Z 0-9

Why 1 Guitar Tabs – Helloween

CD, Sheet music, Poster

Do you like Why 1? Share with your friends now
Tabs
WHY? by Helloween
====
written by Andi Deris



[Riff 1]
e|-------------------------------------------------------|
B|-------------------------------------------------------|
G|---9--------------------------9------------------------|
D|---9---9---7~------9---11-----9---9---7~-------6-------|
A|-------7---5~------7----9---------7---5~-------4---7---|
E|---------------------------------------------------5---|

[Riff 2]
e|----------------------------------------------------|
B|----------------------------------------------------|
G|---9--------------------------9----------------6\---|
D|---9---9---7~------9---11-----9---9---7~-------6\---|
A|-------7---5~------7----9---------7---5~------------|
E|----------------------------------------------------|

[Riff 3]
e|--------------------------------------------------------------------|
B|--------------------------------------------------------------------|
G|---9----------------------------------------------------------------|
D|---9-----------9-----------7~-----------------------9------11-------|
A|---------------7-----------5~-----------------------7-------9-------|
E|---0---0---0---0---0---0---0---0----0---0---0---0---0---0---0---0---|

e|---------------------------------------------------------|
B|---------------------------------------------------------|
G|---9------------------------------------------------6\---|
D|---9-----------9-----------7~-----------------------6\---|
A|---------------7-----------5~----------------------------|
E|---0---0---0---0---0---0---0---0----0---0---0---0--------|

[Riff 4]
e|---------------------------------------------------------------------------|
B|---------------------------------------------------------------------------|
G|---2-----------2-------------2---------2-----------2-----------------------|
D|---2-----------2-------0h2-------2-----0---0---0---0---0---2---0h2p0-------|
A|---0---0---0---0---0---------------------------------------------------3---|
E|---------------------------------------------------------------------------|

[Riff 5]
e|--------------------------------------------------------------------------|
B|--------------------------------------------------------------------------|
G|---2-----------2-------------2---------------------------------------7~---|
D|---2-----------2-------0h2-------2-----4---0---0---2-----------------7~---|
A|---0---0---0---0---0-------------------------------------3---2---0---5~---|
E|--------------------------------------------------------------------------|

[Riff 6]
e|-------------------------------------------------------------------------------|
B|-------------------------------------------------------------------------------|
G|-----------9---------------------------5---5-------------7---7-----------------|
D|-----------9---------5-----------------5---5-------------7---7-----1-----------|
A|---7---7---7-----7-------7-----3---3---3---3-----5---5---5---5-----2---2-------|
E|-----------------------------------------------------------------------3---2---|

e|----------------------------------------------------------------------|
B|-------------------------0--------------------------------------------|
G|-----------4---------0------------------------------------------------|
D|-----------2-----2-------------5----------5---------7---------7-------|
A|-------------------------------3------7-------7-----5-----5-------5---|
E|---0---0--------------------------------------------------------------|

e|----------------------------------------------|
B|----------------------------------------------|
G|----------------------------------------------|
D|-----------------------------------------4~---|
A|---6---6---6---7---7---7---9---9---9-----6~---|
E|----------------------------------------------|

[Riff 7]
e|---------------------------------------------------------------------|
B|---------------------------------------------------------------------|
G|-----------9---9-------------5---5-------------7---7-----------------|
D|-----------9---9-------------5---5-------------7---7-----1-----------|
A|---7---7---7---7-----3---3---3---3-----5---5---5---5-----2---2-------|
E|-------------------------------------------------------------3---2---|

e|------------------------------------------------------------------------------|
B|-------------------------0----------------------------------------------------|
G|-----------4---------0--------------------------------------------------------|
D|-----------2-----2-------------5----------5---------7-----------------7-------|
A|-------------------------------3------7-------7-----5---7h9--7----5-------5---|
E|---0---0----------------------------------------------------------------------|

e|---------------------------------------------------------------------------------------|
B|-----------------------------------------------------------0--------------------0------|
G|-------------------------------------------------9------0----------------5-------------|
D|-------------------------------------------------9---2-------------------5---2-----2---|
A|---6---6---6---7---7---7---9---9---9-----7---7---7---------------3---3---3-------------|
E|---------------------------------------------------------------------------------------|

e|--------------------------------------------------------------------------------------------|
B|----------------------------------------------------------------------0---------------------|
G|-----------7------------------------------------------------4------0------------------------|
D|-----------7------------7--------1--------------------------2---2-----------5--------5------|
A|---5---5---5---7-----5-----5-----2---2--------------------------------------3-----7-----7---|
E|-------------------------------------3---2------0---2---3-----------------------------------|

e|---------------------------------------------|-------------------------------|
B|---------------------------------------------|-------------------------------|
G|---------------------------------------------|-------------------------------|
D|---7--------------------------------------4--|---4---4---5---5---5---7---7---|
A|---5------6---6---6---7---7---7---9---9---6--|---6---6---7---7---7---9---9---|
E|---------------------------------------------|-------------------------------|
                                                (play this only the first time)

[Riff 8]
e|-----------------------------------------------------------------------------------------|
B|-----------------------------------------------------------------------------------------|
G|-----------7----------------------5-------7-------4------------------7-------------------|
D|---5-------7--------------2-------5-------7-------4----------5-------7---------------2---|
A|---3-------5------2---2---2-------3-------5-------2----------3-------5-------2---2---2---|
E|------------------3---2---0--------------------------------------------------3---2---0---|

e|-------------------------------------------------------------------------------------------|
B|-------------------------------------------------------------------------------------------|
G|---5-------7-------------------------------------------------------------------------------|
D|---5-------7-------------------------------------------------------------------------------|
A|---3-------5------------------------------------------------------2--2--2--3--3--3--3--3---|
E|------------------0--0--0--2--2--2--2--2--3--3--3--5--5--5--5--5---------------------------|

e|----------------------------|
B|----------------------------|
G|----------------------------|
D|----------------------------|
A|---5--5--5--5--5--5--5--5---|
E|----------------------------|






[Riff 1] 1x

[Riff 1] 1x with lyrics:
Father, it's time
Have a heart for your child who cries in pain

[Riff 2] 1x with lyrics:
Not a new sign
But a strike that'll blow those fools away

[Riff 3] 2x with lyrics:
Open your eyes
If you've got any you just look for too long a time
They spit on your name
Doin' everything darnned as highest crime

[Riff 4] 2x with lyrics:
They believe they could walk on the water
Playin' God
Sleep with the devils' daughter

[Riff 5] 1x with lyrics:
Killed your son and might kill mine
But you don't mind

[Riff 6] 1x with lyrics:
Why, Lord, why
Tell me why
In these lonely days
I'd need your answer
There's a reason why

[Riff 3] 1x

[Riff 3] 2x with lyrics:
How could you fail?
Still it's time, turn the black into the light
Why do you wait?
Do you look down and laugh at what you find?

[Riff 4] 2x with lyrics:
Can't you see they are mistreating their daughters
They believe they could walk on the waters

[Riff 5] 1x with lyrics:
They killed your son and might kill mine
But you don't mind

[Riff 7] 1x with lyrics:
Why, Lord, why
Tell me why
In these lonely days
I'd need your answer
There's a reason why
Why, Lord, why
Tell me why
You're the only light forever lasting
Tell me father, why


[Riff 8] with solos:

[Solo 1]
e|-----------------------------------------------------------12------15b17---|
B|-------------------------------------------------------12------12----------|
G|----------------14b16r14--12--14--12-------12--14b16-----------------------|
D|-------12--14-------------------------14-----------------------------------|
A|---14----------------------------------------------------------------------|
E|---------------------------------------------------------------------------|

e|---15--12-------------------------------------------------------------------------------|
B|-----------15--12-----------------------------------------------------------------------|
G|-------------------14--12------14--12~--------------------------------------------------|
D|---------------------------14-----------14--12------------------------------------------|
A|------------------------------------------------14--12--10------10h12--10---------------|
E|------------------------------------------------------------12-------------12--10--12---|

e|--------------------------------------------------------------------------------------------|
B|---15b17--15--12-----------15---------------------------------------------------------------|
G|------------------14--12---14--14b16--14~---12------14--12----------------------------------|
D|------------------------------------------------14----------14~----12--14-------------------|
A|---------------------------------------------------------------------------12--14-----------|
E|-----------------------------------------------------------------------------------10--12---|

e|------------------------------------|
B|------------------------------------|
G|------------------------------------|
D|------------------------------------|
A|---10-------------------------------|
E|-------12------5--5h7--5--3--0--0---|

[Solo 2]
e|-------------------------------------------------------------------------------------|
B|--------------------------------------15b17--15~----15--17--19---19b--19br--<17>~~---|
G|----------------14b16r14--12------12-------------------------------------------------|
D|-------12--14-----------------14-----------------------------------------------------|
A|---14--------------------------------------------------------------------------------|
E|-------------------------------------------------------------------------------------|

e|-------------------------------------------------------------------------------------|
B|----------12--12---------12--12--15--12--13--12--13--12------12----------------------|
G|---14b16----------14b16----------------------------------14------14--12--14p12-------|
D|--------------------------------------------------------------------------------14---|
A|-------------------------------------------------------------------------------------|
E|-------------------------------------------------------------------------------------|

e|---------------------------------------------------------------------------------------|
B|---------------------------------------------------------------------------------------|
G|---14--12------12-----------------------------------------------------------------12---|
D|-----------14------14--12--------------------------------9-------------9--10--12-------|
A|---------------------------14--13--12--10~--------9--10-----9--10--12------------------|
E|----------------------------------------------12---------------------------------------|

e|---------------------------------------------12------------------------------------12--14b-|
B|-----------------------------------------12------12--15b17r15--12------12--13--15----------|
G|---11--12--14--14b16r14--12------12--14----------------------------14----------------------|
D|-----------------------------14------------------------------------------------------------|
A|-------------------------------------------------------------------------------------------|
E|-------------------------------------------------------------------------------------------|


[Riff 7] 1x with lyrics:
Why, Lord, why
Tell me why
In these lonely days I need your answer
There's a reason why
Why, Lord, why
Tell me why
Your the only light forever lasting
Tell me father, why

[Riff 2] 1x

[Riff 3] to fade with lyrics:
Father it's time
Father it's time ...





Comments


Popular Helloween tabs & chords
Power Bass Tabs
Power 3 Bass Tabs
Halloween Tabs
If I Could Fly 1 Tabs
Madness Of The Crowds Tabs
Pink Bubbles Go Ape Tabs
Power 1 Tabs
Save Us Tabs
Warrior Tabs
A Tale That Wasnt Right Ukulele


Song lyrics



↑ Back to top | Tablatures and chords are parodies/interpretations of the original songs. You may use it for private study, scholarship, research or language learning purposes only
© 2014 AZChords.com Contact us | Privacy policy | DMCA | Add/correct tabs | Request tabs | Top 50 tabs