>
 >
Why?

Why? Guitar Tabs

Helloween - Why? chords, tabs, tablatures, lyrics

Guitar lessons | Add/correct | Request | Top 50 tabs Artists:  A B C D E F G H I J K L M N O P Q R S T U V W X Y Z 0-9

Why? Guitar Tabs – Helloween

CD, Sheet music, Poster

Do you like Why?? Share with your friends now
Tabs
PROPS GO TO: pjslash


Helloween

master of the rings

why

intro

keybords part tabbed for guitar

eb---------------------------------
Bb---------------------------------
Gb--9-----7--9--11--9-----7--6-----
Db-----9---------------9--------7--
Ab---------------------------------
Eb---------------------------------

guitars

eb---------------------------------
Bb---------------------------------
Gb--9-----7---------9-----7--6\----
Db--9-----7---------9-----7--6\-7\-
Ab--7-----5---------7-----5--4\-7\-
Eb------------------------------5\-

verse same as intro

3rd and 4th time

guitar 2 plays like this

eb---------------------------------
Bb---------------------------------
Gb---------------------------6\----
Db---------------------------6\-7\-
Ab--7-7-7-7-7-7-7-7-7-7-7-7--4\-7\-
Eb------------------------------5\-
   (-----palm mute---------)

bridge
(2 times)
                                       end
eb------------------------------------|-------
Bb------------------------------------|-------
Gb-----------------------7-----7---7--|--7----
Db------7-----7---7------7-----7---7--|--7----
Ab------7-----7---7--5-5---5-5---5----|--5----
Eb--5-5---5-5---5---------------------|-------
   (----------palm mute-------------)

chorus

eb-------------------------------------------------------------------------
Bb-------------------------------------------------------------------------
Gb--9----5----7----------------------9---------5------7--------------------
Db--9----5----7----------------------9-9-10-12-5--2~~-7--4~~---------------
Ab--7----3----5----9~~--5~~--4~~-----7---------3------5------6~~-7~~-9~~---
Eb-----------------7~~--3~~--2~~--0----------------------------------------

verse 2

eb---------------------------------
Bb---------------------------------
Gb--9-----7---------9-----7--6\----
Db--9-----7---------9-----7--6\-7\-
Ab--7-----5---------7-----5--4\-7\-
Eb------------------------------5\-

guitar 2 plays like this

eb---------------------------------
Bb---------------------------------
Gb---------------------------6\----
Db---------------------------6\-7\-
Ab--7-7-7-7-7-7-7-7-7-7-7-7--4\-7\-
Eb------------------------------5\-
   (-----palm mute---------)

second chorus
(1st time)
eb------------------------------------------------------------------------
Bb------------------------------------------------------------------------
Gb--9----5----7----------------------9---------5------7-------------------
Db--9----5----7----------------------9-9-10-12-5--2~~-7--4~~--------------
Ab--7----3----5----9~~--5~~--4~~-----7---------3------5------6~~-7~~-9~~--
Eb-----------------7~~--3~~--2~~--0---------------------------------------

(2nd time)
eb---------------------------------------------------------------------------------------------------
Bb---------------------------------------------------------------------------------------------------
Gb--9---------5------7---------------------------------------5------7--------------------------------
Db--9-9-10-12-5--2~~-7--4~~--------------------------9-10-12-5--2~~-7--4~~--------------5~~-7~~-9~~--
Ab--7---------3------5-------9~~--5~~--4~~-------------------3------5------6~~-7~~-9~~---------------
Eb---------------------------7~~--3~~--2~~--0-2-3-0--------------------------------------------------
                                           (--p.m--)

solo

eb----------------------------------------------15^^-15-12------------------------------------------------------------
Bb-------------------------------------12-15-12------------15-12------------------------------------------------------
Gb-----12-14-14^^>-12-14-12----12-14^^---------------------------14-12----14-12~~-------------------------------------
Db--14----------------------14-----------------------------------------14---------14-12-------------------------------
Ab--------------------------------------------------------------------------------------14-12-------12~~--------------
Eb--------------------------------------------------------------------------------------------15-12------15-12-10-12--

eb-----------------------------------------------------------------------------
Bb--15^^>-12----------12-------------------------------------------------------
Gb-----------14-12-14----14----14-12-------------------------------------------
Db--------------------------14-------14-12-14-------------------------------0--
Ab--------------------------------------------12-14-------10----------0-2-3----
Eb--------------------------------------------------10-12----12-0-2-3----------
                                       (--------easy palm mute----------------)

  second part
eb------------------------------12-14-14^-14^-14-12-12------------------------------------------------------------------------------------------------------------------------
Bb-----------------15^^-15~~-15------------------------15^^~~-12-12-12~~-15-12-13----121312131213-------------------------------------------------------------------
Gb--14^^>-12----12----------------------------------------------------------------14------------------------14-121412141214-----------------------------------------
Db-----------14-----------------------------------------------------------------------------------------------------------------------121412141214-12---------------
Ab--------------------------------------------------------------------------------------------------------------------------------------------------------------14-13-12-10~~-
Eb----------------------------------------------------------------------------------------------------------------------------------------------------------------------------

eb-----------------------------------------------------------------12------------------12-14-14^--
Bb--------------------------------------------------------------12----15-15^^-12-13-15------------
Gb--------------------------------12-11-12-14-14^^>-12----12-14-----------------------------------
Db-----------------------------12----------------------14-----------------------------------------
Ab-----------14----------14-15--------------------------------------------------------------------
Eb--12-14-15----12-14-15--------------------------------------------------------------------------

solo rhytm
                                                 second part
eb----------------------------------------------|---------------------------------------------------------------------------------------------------
Bb----------------------------------------------|---------------------------------------------------------------------------------------------------
Gb--5----7-------------7--5----7----4--4--4--4--|--5----7-------------7--5----7---------------------------------------------------------------------
Db--5----7----5--4--2--7--5----7----4--4--4--4--|--5----7----5--4--2--7--5----7----------------2-2-4-4-4-5-5-5-4-4-5-5-5-4-4-4-2-2------------------
Ab--3----5----5--4--2--5--3----5----2--2--2--2--|--3----5----5--4--2--5--3----5----3-3-3-5-5-5-------------------------------------5-5-5-5-5-5-5-5--
Eb------------3--2--0----------------------------------------3--2--0--------------------------------------------------------------------------------



these are the basic parts of the song which are easy to hear and enough to play the song!!
i know, the solo isn't perfect but it sounds as good as it sounds in the song
if you find any mistakes or missing parts please contact me
---------------------------
SYMBOLS

^^bend 1
^bend 1/2
^>bend and release
~~vibrato
pull off
\slide down
--------------------------





Comments


Popular Helloween tabs & chords
A Million To One Bass Tabs
Falling Higher 1 Bass Tabs
Halloween 2 Bass Tabs
I Can Bass Tabs
Steel Tormentor Bass Tabs
I Want Out Drum Tabs
Doctor Stein Tabs
In The Middle Of A Heartbeat Tabs
Mr Torture 1 Tabs
Mrs God Tabs


Song lyrics



↑ Back to top | Tablatures and chords are parodies/interpretations of the original songs. You may use it for private study, scholarship, research or language learning purposes only
© 2014 AZChords.com Contact us | Privacy policy | DMCA | Add/correct tabs | Request tabs | Top 50 tabs