>
 >
Starlight

Starlight Guitar Tabs

Helloween - Starlight chords, tabs, tablatures, lyrics

Guitar lessons | Add/correct | Request | Top 50 tabs Artists:  A B C D E F G H I J K L M N O P Q R S T U V W X Y Z 0-9

Starlight Guitar Tabs – Helloween

CD, Sheet music, Poster

Do you like Starlight? Share with your friends now
Bass TabsTabs
STARLIGHT
HELLOWEEN - EP

Pre-recorded dialogue for 1:03 

E-------||--------------------------------------|-----------
B-------||--------------------------------------|-----------
G---4:--||--------------------------------------|-----------
D---4:--||--------------------------------------|-----------
A-------||--------------------------------------|-----------
E-------||--------------------------------------|-----------
 

  "AHHHHHHHHHHH!!!!!!!!!! 

E-----------------------------------------------------------
B-----------------------------------------------------------
G------/-----------------------\----------------------------
D------/-----------------------\-----------------2----------
A------/-----------------------\-----------------2----------
E------/-----------------------\-----------------0----------


  (Ad lib tremolo picking and soloing) 
  (Drums) 
 

E-----------------------------------------------|-----------
B-----------------------------------------------|-----------
G-----------------------------------------------|-----------
D---------------5--7--9-----10--9--7------------|-----------
A------5--7--9------------------------10--9--7--|-----------
E-----------------------------------------------|-----------
  

E-----------------------------------------------------------
B-----------------------------------------------------------
G------9----------------------------------------------------
D------9----------------------------------------------------
A------7----------------------------------------------------
E------0----------------------------------------------------


E--------------------------------------------|--------------
B--------------------------------------------|--------------
G--------------------------------------------|--------------
D------------5--7--9--10--9--7---------------|--------------
A---5--7--9---------------------10--9--7-----|--------------
E--------------------------------------------|--------------


E-----------------------------------------------------------
B-----------------------------------------------------------
G------9----------------------------------------------------
D------9----------------------------------------------------
A------7----------------------------------------------------
E------0----------------------------------------------------

  
E------------|----------------------------------------|-----
B------------|----------------------------------------|-----
G------------|----------------------------------------|-----
D------------|-----------5--7--9--10--9--7------------|-----
A------------|--5--7--9---------------------10--9--7--|-----
E------------|----------------------------------------|-----


E-----------------------------------------------------------
B-----------------------------------------------------------
G---7-------------------------------------------------------
D---7-------------------------------------------------------
A---5-------------------------------------------------------
E-----------------------------------------------------------

  
E--------------------------------------------|--------------
B--------------------------------------------|--------------
G--------------------------------------------|--------------
D------------5--7--9--10--9--7---------------|--------------
A---5--7--9---------------------10--9--7-----|--------------
E--------------------------------------------|--------------


E------------------------------------------------|----------
B------------------------------------------------|----------
G---9-----------------------7--------------------|----------
D---9-----------------------7--------------------|----------
A---7-----------------------5--------------------|----------
E---0--------------------------------------------|----------


E-----------------------------------------------------------
B-----------------------------------------------------------
G---5-----------------------------4-------------------------
D---5-----------------------------4-------------------------
A---3-----------------------------2-------------------------
E-----------------------------------------------------------


E------|--||------------------------------------|-----------
B------|--||------------------------------------|-----------
G------|--||*--------9-----------7--------------|-----------
D------|--||*--------9-----------7--------------|-----------
A------|--||---------7-----------5--------------|-----------
E------|--||---0--0-----------0--------------0--|-----------


E-------------------------------|---------------------------
B-------------------------------|---------------------------
G---5---------------------------|---------------------------
D---5---------------------------|---------------------------
A---3--3--3--3-----2h3p2--------|---------------------------
E-------------------------3--2--|---------------------------


E------------------------------|----------------------------
B------------------------------|----------------------------
G---------9--------7-----------|----------------------------
D---------9--------7-----------|----------------------------
A---------7--------5-----------|----------------------------
E---0--0--------0-----------0--|----------------------------
  
  3x 

E-----------------------------------------------||----------
B-----------------------------------------------||----------
G---5------------------------------------------*||----------
D---5------------------------------------------*||----------
A---3-----3--3--3-----------------2h3p2---------||----------
E----------------------------------------3--2---||----------

  3rd time 

E---------------------------------|-------------------------
B---------------------------------|-------------------------
G---------------9--------7--------|-------------------------
D---------------9--------7--------|-------------------------
A---------------7--------5--------|-------------------------
E---------0--0--------0--------0--|-------------------------

  Your 

E-----------------------------------------------------------
B---5-------------------------------------------------------
G---5-------------------------------------------------------
D---5-------------------------------------------------------
A---3-------------------------------------------------------
E-----------------------------------------------------------

  Rhythm Figure 1 (Verse) 

E---||--||---------------------------------------------|----
B---||--||---------------------------------------------|----
G---||--||*--------------------------------------------|----
D---||--||*--9--------------------------9-----9-----9--|----
A---||--||---7--------------------------7-----7-----7--|----
E---||--||---0-----0--0--0--0--0--0-----0-----0-----0--|----


E------------------------------------------------|----------
B------------------------------------------------|----------
G---7--------------------------------------------|----------
D---7--------------------------7-----7-----7-----|----------
A---5-----5--5--5--5--5--5-----5-----5-----5-----|----------
E------------------------------------------------|----------


E---------------------------------------------|-------------
B---------------------------------------------|-------------
G---------------------------------------------|-------------
D---5-----------------------------------------|-------------
A---5--------------------------5-----5-----5--|-------------
E---3-----3--3--3--3--3--3-----3-----3-----3--|-------------


E------------------------------------------------|----------
B------------------------------------------------|----------
G------7-----------------------------------------|----------
D------7--------------------------7-----7-----7--|----------
A------5-----5--5--5--5--5--5-----5-----5-----5--|----------
E------------------------------------------------|----------

  Two guitars 

E------------------------------------------------|----------
B---------------------------------------3--3--5--|----------
G---------------------2--2--4--4--5--5--4--4--5--|----------
D---2--2--4--4--5--5--4--4--5--5--7--7-----------|----------
A---3--3--5--5--7--7-----------------------------|----------
E------------------------------------------------|----------


E---------------------------------------------------|-------
B---------------------------------------5--5--7--7--|-------
G---------------------4--4--5--5--7--7--5--5--7--7--|-------
D---4--4--5--5--7--7--5--5--7--7--9--9--------------|-------
A---5--5--7--7--9--9--------------------------------|-------
E---------------------------------------------------|-------
 

E---------------------------------------------|-------------
B---------------------------------------------|-------------
G---9-----------------------------------------|-------------
D---9-----------------------------------------|-------------
A---7-----------------------------------------|-------------
E---0-----------------------------------------|-------------


E----------------------------------------------------||-----
B----------------------------------------------------||-----
G---9--7--5--7--9--7--5--7--------------------------*||-----
D---9--7--5--7--9--7--5--7--9--7--5--7--9--7--5--7--*||-----
A---------------------------9--7--5--7--9--7--5--7---||-----
E----------------------------------------------------||-----

  Pre Chorus 

E---------------------------------------------------|-------
B---------------------------------------------------|-------
G---------------------------------------2--------4--|-------
D------------2--------4--------5--------------------|-------
A---5-----------------------------------------------|-------
E---------------------------------------------------|-------


E---------------------------------------------------|-------
B---------------------------------------------------|-------
G---------------------------------------------------|-------
D---5--------4--------2-----------------------------|-------
A------------------------------5--------3--------2--|-------
E---------------------------------------------------|-------


E---------------------------------------------------|-------
B---------------------------------------------------|-------
G---------------------------------------2--------4--|-------
D------------2--------4--------5--------------------|-------
A---5-----------------------------------------------|-------
E---------------------------------------------------|-------


E------------------------------------|----------------------
B------------------------------------|----------------------
G------------------------------------|----------------------
D---5--------4-----2-----------------|----------------------
A---------------------5-----3-----2--|----------------------
E------------------------------------|----------------------


E------------------------------------------------------|----
B------------------------------------------------------|----
G------------------------------------------2--------4--|----
D---------------2--------4--------5--------------------|----
A------5-----------------------------------------------|----
E------------------------------------------------------|----


E---------------------------------------------------|-------
B---------------------------------------------------|-------
G---------------------------------------------------|-------
D---5--------4--------2-----------------------------|-------
A------------------------------5--------3--------2--|-------
E---------------------------------------------------|-------


E---------------------------------------------------|-------
B---------------------------------------------------|-------
G------------------------------2--------4--------5--|-------
D---2--------4--------5-----------------------------|-------
A---------------------------------------------------|-------
E---------------------------------------------------|-------
  

E---------------------------------------------------|-------
B---------------------------------------------------|-------
G---4--4--4--4--2--2--2--2--------------------------|-------
D---------------------------5--5--5--5--4--4--4--4--|-------
A---------------------------------------------------|-------
E---------------------------------------------------|-------

  Rhythm Figure 2 (Chorus) 

E---------------------------------------------------|-------
B---------------------------------------------------|-------
G---------------------------------------------------|-------
D------9--------------------------------------------|-------
A------7-----------------------------------------5--|-------
E------0-----0--0--0--0--0--0--0--0--0--0--0--0--3--|-------


E---------------------------------------------|-------------
B---------------------------------------------|-------------
G---------------------------------------------|-------------
D---5-----------------------------------------|-------------
A---3-----3--3--3--3--3--3--3--3--3--3--3--3--|-------------
E---------------------------------------------|-------------


E----------------------------------------------------|------
B----------------------------------------------------|------
G----------------------------------------------------|------
D------7-----------------------7--------9--------11--|------
A---7--5--5--5--5--5--5--5-----5--------7--------9---|------
E---5------------------------------------------------|------
  

E------------------------------------------|----------------
B------------------------------------------|----------------
G------------------------------------------|----------------
D------9-----------------------------------|----------------
A------7--------------------9-----7-----5--|----------------
E------0--0--0--0--0--0--0--7-----5-----3--|----------------
  

E------------------------------------------------|----------
B------------------------------------------------|----------
G------------------------------------------------|----------
D------9-----------------------------------------|----------
A------7--------------------------------------9--|----------
E------0-----0--0--0--0--0--0--0--0--0--0--0--7--|----------

  
E---------------------------------------------|-------------
B---------------------------------------------|-------------
G---------------------------------------------|-------------
D---------------------------------------------|-------------
A------7--------------------------------------|-------------
E------5--5--5--5--5--5--5--5--5--5--5--5--5--|-------------

  
E-----------------------------------------------------------
B-----------------------------------------------------------
G-----------------------------------------------------------
D-----------------------------------------------------------
A---10-----------------------------------------9------------
E---8------------------------------------------7------------


End RF2 

E---------------------------------------------------|-------
B---------------------------------------------------|-------
G---------------------------------------------------|-------
D---------------------------------------------------|-------
A---2-----------------------------------------------|-------
E---0--0--0--0--0--0--0--0--0--0--0--0--0--0--0--0--|-------
  

  Fill 1 end fill 1 

E---------------------------------------------------||------
B---------------------------------------------------||------
G---9--7--5--7--9--7--5--7--------------------------||------
D---9--7--5--7--9--7--5--7--9--7--5--7--9--7--5--7--||------
A---------------------------9--7--5--7--9--7--5--7--||------
E---------------------------------------------------||------

  Play Verse, Pre Chorus,Chorus, w/out 

  Fill 1 

E---------------------------------------------|-------------
B---------------------------------------------|-------------
G---------------------------------------------|-------------
D---------------------------------------------|-------------
A---------------------------------------------|-------------
E---------------------------------------------|-------------
  

  Harmony Solo 1 (gtr1) 

E--------------------9^-----9^--|---------------------------
B----------------10-------------|---------------------------
G------------11-----------------|---------------------------
D----/---12---------------------|---------------------------
A-------------------------------|---------------------------
E-------------------------------|---------------------------


E---9-----------------------------------|-------------------
B------10------10^-----------------10^--|-------------------
G----------11---------------------------|-------------------
D---------------------------------------|-------------------
A---------------------------------------|-------------------
E---------------------------------------|-------------------


E------------------------------|----------------------------
B---10-------------12----------|----------------------------
G-------11-------------12------|----------------------------
D-----------12-------------14--|----------------------------
A------------------------------|----------------------------
E------------------------------|----------------------------
 

E-----------------------------|-----------------------------
B---------------12^-----------|-----------------------------
G-----------12----------------|-----------------------------
D---11--14--------------------|/1---------------------------
A-----------------------------|-----------------------------
E-----------------------------|-----------------------------
  

E----------------9^-----------------9^--|-------------------
B------------10-------------------------|-------------------
G--------11-----------------------------|-------------------
D---/12---------------------------------|-------------------
A---------------------------------------|-------------------
E---------------------------------------|-------------------

  
E---9-----------------------------|-------------------------
B------10------10^-----------10^--|-------------------------
G----------11---------------------|-------------------------
D---------------------------------|-------------------------
A---------------------------------|-------------------------
E---------------------------------|-------------------------
  

E---------------------------|-------------------------------
B---10----------12----------|-------------------------------
G-------11----------12------|-------------------------------
D-----------12----------14--|-------------------------------
A---------------------------|-------------------------------
E---------------------------|-------------------------------

  End 

E-------------9---/10-------------|--|----------------------
B----------------------10---------|--|----------------------
G----------9---------------11-----|--|----------------------
D------11-------------------------|--|----------------------
A---------------------------------|--|----------------------
E---------------------------------|--|----------------------
  

E------------------------------------------------------|----
B------------------------------------------------------|----
G------------------------------------------------------|----
D------7-----------------------------------------------|----
A------5--5--5--5--5--5--5--5--5--5--5--5--5--5--5--5--|----
E------------------------------------------------------|----
  
 
E-----------------------------------------------------------
B-----------------------------------------------------------
G-----------------------------------------------------------
D---------------------------7------8------------------------
A---5--5--5--5--5--5--5--5--5------6------------------------
E-----------------------------------------------------------


  Harmony Solo 2 (gtr 1) 

E---||-----------------------------------------------------10--
B---||---12--10--9--10--12--10--9--10--12--10--9--10--12-------
G---||*--------------------------------------------------------
D---||*--------------------------------------------------------
A---||---------------------------------------------------------
E---||---------------------------------------------------------

 
E----------------------------------------------9---||-------
B---10--9--7--9--10--9--7--9--10--9--7--9--10------||-------
G-------------------------------------------------*||-------
D-------------------------------------------------*||-------
A--------------------------------------------------||-------
E--------------------------------------------------||-------

  
E---||------------------------------------------------------
B---||---17--16--14--16--17--16--14--16--17--16--14--16-----
G---||*-----------------------------------------------------
D---||*-----------------------------------------------------
A---||------------------------------------------------------
E---||------------------------------------------------------


E-------16--|-----------------------------------------------
B---17------|-----------------------------------------------
G-----------|-----------------------------------------------
D-----------|-----------------------------------------------
A-----------|-----------------------------------------------
E-----------|-----------------------------------------------

  
E-------------------------------------------------------14--
B---16--14--12--14--16--14--12--14--16--14--12--14--16------
G-----------------------------------------------------------
D-----------------------------------------------------------
A-----------------------------------------------------------
E-----------------------------------------------------------

  (Use Chorus riff for trade off leads) 

E-----------------------------------------------------------
B---15^-----------------------------------------------------
G-----------------------------------------------------------
D-----------------------------------------------------------
A-----------------------------------------------------------
E-----------------------------------------------------------

 
  Harmony Solo 1 (gtr 2) 

E--------------------------------|--------------------------
B------------15--17^--------17^--|--------------------------
G--------14----------------------|--------------------------
D---/16--------------------------|--------------------------
A--------------------------------|--------------------------
E--------------------------------|--------------------------
 

E--------------------------------|--------------------------
B---17--14---------15--------15--|--------------------------
G--------------14----------------|--------------------------
D--------------------------------|--------------------------
A--------------------------------|--------------------------
E--------------------------------|--------------------------
  

E---------------------------------|-------------------------
B---14----------------15----------|-------------------------
G-------14----------------16------|-------------------------
D-----------16----------------17--|-------------------------
A---------------------------------|-------------------------
E---------------------------------|-------------------------
  

E--------------------------------------|--|-----------------
B---------------15^--------------------|--|-----------------
G-----------16-------------------------|--|-----------------
D---14--17-----------------------------|--|-----------------
A--------------------------------------|--|-----------------
E--------------------------------------|--|-----------------

  
E----------------------------------------|------------------
B-----------15--17^-----------------17^--|------------------
G-------14-------------------------------|------------------
D---16-----------------------------------|------------------
A----------------------------------------|------------------
E----------------------------------------|------------------

  
E-----------------------------------------|-----------------
B---17--14------15--------------------15--|-----------------
G-----------14----------------------------|-----------------
D-----------------------------------------|-----------------
A-----------------------------------------|-----------------
E-----------------------------------------|-----------------


E---------------------------|-------------------------------
B---14----------15----------|-------------------------------
G-------14----------16------|-------------------------------
D-----------16----------17--|-------------------------------
A---------------------------|-------------------------------
E---------------------------|-------------------------------
  

E-----------12---/14----------|-----------------------------
B---------------------15------|-----------------------------
G-------12----------------14--|-----------------------------
D---14------------------------|-----------------------------
A-----------------------------|-----------------------------
E-----------------------------|-----------------------------
  

E---------------------------------------------------|-------
B---------------------------------------------------|-------
G---------------------------------------------------|-------
D---7-----------------------------------------------|-------
A---5--5--5--5--5--5--5--5--5--5--5--5--5--5--5--5--|-------
E---------------------------------------------------|-------


E-----------------------------------------------------------
B-----------------------------------------------------------
G-----------------------------------------------------------
D------------------------------7-----------------------8----
A---5--5--5--5--5--5--5--5-----5-----------------------6----
E-----------------------------------------------------------
  

E---||------------------------------------------------------
B---||---15--14--12--14--15--14--12--14--15--14--12--14-----
G---||*-----------------------------------------------------
D---||*-----------------------------------------------------
A---||------------------------------------------------------
E---||------------------------------------------------------


E-------14--|-----------------------------------------------
B---15------|-----------------------------------------------
G-----------|-----------------------------------------------
D-----------|-----------------------------------------------
A-----------|-----------------------------------------------
E-----------|-----------------------------------------------


E-------------------------------------------------------12--
B---14--12--10--12--14--12--10--12--14--12--10--12--14------
G-----------------------------------------------------------
D-----------------------------------------------------------
A-----------------------------------------------------------
E-----------------------------------------------------------

  
E-------------------------------------------------------19--
B---21--19--17--19--21--19--17--19--21--19--17--19--21------
G-----------------------------------------------------------
D-----------------------------------------------------------
A-----------------------------------------------------------
E-----------------------------------------------------------


E-----------------------------------------------------------
B---19--17--16--17--19--17--16--17--19--17--16--17--19------
G-----------------------------------------------------------
D-----------------------------------------------------------
A-----------------------------------------------------------
E-----------------------------------------------------------
  

E---17---||-------------------------------------------|-----
B--------||--19^--------------------------------------|-----
G-------*||-------------------------------------------|-----
D-------*||-------------------------------------------|-----
A--------||-------------------------------------------|-----
E--------||-------------------------------------------|-----

  (Use Chorus riff for trade off leads) 

  After leads, recap to Pre Chorus





Comments


Popular Helloween tabs & chords
A Tale That Wasn Right Bass Tabs
Invitation Bass Tabs
Rise And Fall Bass Tabs
If I Could Fly Drum Tabs
Escalation 666 Tabs
Keeper Of The Seven Keys Part 2 Tabs
Save Us Tabs
The Departed Tabs
If I Knew Ukulele
Pink Bubbles Go Ape Ukulele


Song lyrics



↑ Back to top | Tablatures and chords are parodies/interpretations of the original songs. You may use it for private study, scholarship, research or language learning purposes only
© 2014 AZChords.com Contact us | Privacy policy | DMCA | Add/correct tabs | Request tabs | Top 50 tabs