» » »

Rise & Fall Bass tabs (ver.2)

Artists:  A B C D E F G H I J K L M N O P Q R S T U V W X Y Z # 

Rise & Fall Bass tabs (ver.2)

Helloween
Rating:
0/5 (0 votes)

Tabs too difficult? Try these video lessons and learn fast.
                I SEARCH FOR THIS GREAT SONG A WHOLE DAY UNTIL I WAS PIST OFF , SO I DECIDE 
TO JUST TRY TO TAB IT
AND PUT IT IN THE NET SO EVERYONE CAN PLAY IT LIKE ME :p , ANY CORRECTION 
PLEASE E-MAIL ME TO



INTRO

little drums intro first

G--------------------------------------------------
D--------------------------------------------------
A--------------------------------------------------
E--5---5-5-----------------5---5-5-----------------
B---5-5---5-5-7-5-5-7-7-5-5-5-5---5-5-7-5-5-7-7-5-5
Bridge 1
G---------------------------------------------------
D---------------------------------------------------
A---------------------------------------------------
E--5-7/9/7-5-2-4/5/4-2-5-5-5-5-5-5-5-5-5-5-5-5-2-2-2-==>continue some
B---------------------------------------------------     more time

Verse
G-------------------------------------------------------------------------
D-------------------------------------------------------------------------
A-------------------5-5-5-5-5-5-5-5-5-4-4-4-4-4-4-4-4-4-------------------
E--5-5-5-5-5-5-5-5-5------------------------------------2-2-2-2-2-2-2-2-2-
B-------------------------------------------------------------------------

G--------------------------------------------------------------------------
D--------------------------------------------------------------------------
A--5-5-5-5-5-5-5-5-5-2-2-2-2-2-2-2-2-2-4-4-4-4-4-4-4-4-4-------------------
E--------------------------------------------------------2-2-2-2-2-2-2-2-2-
B--------------------------------------------------------------------------

Bridge 2
G----------------
D----------------
A---4-5-4-2-2-4-(7~)==>second time with out this note
E--5-------------
B----------------

Chorus
G-------------------------------7-6-4-----------------
D---7-6-4----------------------------7-6-4---9-9-10-10
A--------7-6-4-----------------5----------7-7-7-8--8--
E--5----------7-2-4-5-4-2-4-5-4-----------------------
B-----------------------------------------------------

G--------------------------------------------------------------------
D---12-11-9------------------------------9-11-12-11-9-----11-11/14-14
A--9-------12-11-9--9-11-12-11-9-------12------------12-11-----------
E-----------------12------------12-10-9------------------------------
B--------------------------------------------------------------------

Solo
part 1

G---------------------------------
D---------------------------------
A-----5-5-4-4------5-5-2-2-4-4----
E--5-5---------2-2-------------2-2
B---------------------------------
part 2
G---------------------------------
D---------------------------------
A---------5-4-2-4-----------------
E--5-4-2-2------------------------
B----------------10/0--------------====>this note only the last time



Song structure:

Introx2
Bridge1x1
Versex2
Bridge2x1
chorusx1
Bridge1x1
Versex2
Bridge2x2
Chorusx1
Solo p1x1
Solo p2x4
Versex2
Bridge2x2
Chorusx2
Bridge1x2
            
Tabs too difficult? Try these video lessons and learn fast.




comments powered by Disqus
↑ Back to top | Tablatures and chords are parodies/interpretations of the original songs. You may use it for private study, scholarship, research or language learning purposes only