>
 >
Keeper Of The Seven Keys

Keeper Of The Seven Keys Bass Tabs

Helloween - Keeper Of The Seven Keys chords, tabs, tablatures, lyrics

Guitar lessons | Add/correct | Request | Top 50 tabs Artists:  A B C D E F G H I J K L M N O P Q R S T U V W X Y Z 0-9

Keeper Of The Seven Keys Bass Tabs – Helloween

CD, Sheet music, Poster

Do you like Keeper Of The Seven Keys? Share with your friends now
Bass TabsBass Tabs v2ChordsTabsTabs v2Ukulele

Hello (ween) friends!!
This is the most difficult song from helloween since Ride The Sky,
so send a e-mail for me if you found any mistakes in this tab.
Well, that's it, 
Enjoy.

André.


Intro...................Make the people.....  (2X)


G-------------------|-----------------------------|---------------------------
D-------------------|-----------------------------|---------------------------
A-------------0-2-3-|-0---------------------0-2-3-|-0---3-----------------0---
E---0-1-2-3-4-------|-----3---1---0-1-2-3-4-------|---------2---0-1-2-3-4-----
                                                                              

G---------------|----
D---------------|----
A-2-3------0----|----
E---------------|----
                    

Mmm Mmm.......Put on your armour....                                                          

G--------|-----|-------|-----|-----|-----|--------------------|----
D--------|-----|-------|-----|-----|-----|----------------7---|----
A--------|-----|-------|-----|-----|---3-|--------------7---7-|----
E----0-5-|-0-1-|-3-5-3-|-0-0-|-1-1-|-3---|-1---3---5----------|----
                                                                              


You hear them whispering.....

G-----------------------------------------------------------------------------
D-----------------------------------5---5-------------------------------------
A---------------------------------5---5---------------------------3--3--3-2---
E---5--5--5--5--1--1--1--1--3--3----------0--0--0--0--1--1--1--1--------------
                                                                              

G-----------------------------------|---
D-----------------------------------|---
A-----------------------------------|---
E-5-3--1-1-3-3--5--5--5--5--5/12\5--|---
                                       

Watch out for the seas....                                       

G------------------------------------------------------------2-5-2------------
D--------------------------------------------------------2-5-------5-2--------
A-----3-1-0-3----------2-0---2----------5-3---5--------3----------------------
E---1---------1-1-1--0-----4---0-0-0--3-----3---3-3-3-------------------1-1---
                                                                              

G------------------------------------------------------|----
D-----------------2-0----------------------------------|----
A---------3-3-3-3-----3-----2-0---2----------5-3-2-5---|----
E-1-1-3-5-----------------0-----0---0-0-0--3-----------|----
                                                           

Our only hope's your victory......                   

G---------------------------------------------------------------------------|---
D-------------------------------------------2-2-----------------------------|---
A-----------------0-0---------------3-3-5-5-----3-3-2-2-------------------0-|---
E---1-1-1-3-1-0-3-------1-1-3-3-5-5---------------------5-5-3-3-1-1-0-0-----|---
                                                                              

Pre-Chorus

G--------------------------------------2-------------|---
D----------2--3-----2--3--5---2--3--5----------------|---
A----3--5--------5-----------------------------------|---
E---------------------------------------------1--3---|---
                                                                              

Chorus.

G--------------------------|---------------|----------------|-------|---------
D--------------------------|---------------|---3-5-----5----|-------|---------
A---3--------3-------------|---------------|-3-----2-5----3-|---3-2-|---------
E--------3--------3-----5--|---0--5---3--1-|----------------|-3-----|---------
                                                                              

G------------------|---------------------|------------------------------------
D------------------|---------------------|------------------------------------
A---3---7-7-7------|-3--3---0--0--0--0---|----3--3--3--3--3--3--3--0--0-------
E--------------7-0-|--------------------3|-1-----------------------------3----
                                                                              

G--------|---------------------------------------|----------------------------
D--------|---------------------------------------|----------------------------
A--------|--3---7-7-7--------3--3---0--0--0--0---|---3--3--3--3--3--3--3--0---
E-3--3--3|-------------7--0---------------------3|-1--------------------------
                                                                              

G-----------------|-----------------------|----
D-----------------|-----------------------|----
A-0----------2----|----3--3-------------3-|----
E---3--3--3----3--|-1----------3--3--3----|----
                                              
Repeat everything except intro and "...put on your armour..." and then
                                

                THROW THE FIRST KEY INTO THE SEA OF HATE!!

G-----------------------------------------------------------------------------
D-----------------------------------------------------------------------------
A---3-2-0----------------------------------0--0--0--0--0--0-------------------
E-------------------------------------------------------------3--3--3--3--3---
                                                                              

G-----------------------------------------------------------------------------
D-----------------------------------------------------------------------------
A---0--0--0--0--0--0-------------------0--0--0--0--0--0-----------------------
E---------------------3--3--3--3--3----------------------1--1--1--1--1--1--3--
                                                                              

G----------------|------------------------------------------------------------
D----------------|------------------------------------------------------------
A----------------|-----5/7-7-7-7\5-5-5-5/7-7-7-7\2-2-2-2-2/3-3-3-0-2----------
E-3--3--3--3--3--|----------------------------------------------------5-3-2---
                                                                              

G-----------------------------------5-----4------------------------------------
D--------------14------7h9------4-5---5-4---4----------------------------------
A-----------14-----5/7------5-7---------------2-0----------------5-----5-5--5--
E-0----0-12---------------------------------------3-2-0--0-0-0-----------------
                                          
                                    
           * the double bar mean repetition(listen the song to know how many times)     
G---------||--------------------------------------------------||--------------
D---------||------------------------7-------------------------||--------------
A-5--5-5--||------------------5-7/9-----------------5--4------||--------------
E---------||-----7-7-5-7--5h7----------7-7-5-7--5h7------7-5--||--------------
                                                                              
Throw the second key.....
G------------------------------------------||---------------------------------
D-----------------7------------------------||-----------------------4-5-7-5---
A---7-9-9-9-9-7-9---7-9-9-9---------9------||---5/7-7-7-7-7-5/7-7-7-----------
E----------------------------9-8-7----8-9--||---------------------------------
                                                                              
                                                  --> Throw the third key....
G--------------------------------------|---------------------------------------
D-4-0---------------------4-5-7-5-4-0--|---------------------------------------
A------5/7-7-7-7-5/-7-7-7--------------|--3-3-3-3-3-5-5-5-5-5--2h3p2p0h2p0-----
E--------------------------------------|-----------------------------------3---
                                                                              

G---------------------------------------------------|--------------------------
D---------------------------------------------------|-------------------4-5-7--
A--------------------3-3-3-3-3-3-3-5-5-5-5-5-5-5-5--|-5/7-7-7-7-5/7-7-7--------
E-2--0-0-0-0-0-0-0-0--------------------------------|--------------------------
                                                                              
                                                --> The four key belongs....
G--------------------------------------|---------------------------------------
D-5-4-0--------------------4-5-7-5-4-0-|---------------------------------------
A--------5/7-7-7-7-5/7-7-7-------------|--3-3-3-3-3-5-5-5-5-2h3p2p0h2p0--------
E--------------------------------------|--------------------------------3-2-0--
                                                                              

G------------------------------------------|-----------------------------------
D------------------------------------------|-----------------------------------
A-----------3-3-3-3-3-3-3-3-5-5-5-5-5-5-5--|-----------------------------------
E-0-0-0-0-0--------------------------------|-0h2-2-2-2-2-0h2-2-2-2-2-2-0h2-2-2-
                                                                              

G----------------------------||-----------------------------|----
D----------------------------||-----------------------------|----
A--------5h7-----------------||-----------------------------|----
E--2-2-2-----5-0-4-0-2-0-0h2-||---0--0--0--0--0--0--0--0--0-|----
                                                                

Disease, disease,....              

G------------------------------------|------------------------------|----------
D------------------------------------|------------------------------|----------
A----------------5---3---5-----------|--------------5-5-----5-5-7-7-|----------
E----0---3---5---------------3--2--0-|--0-0-3-3-5-5-----7-7---------|-0-0-3-3--
                                                                              

G-------------------------|-------------------------|-----
D-------------------------|-------------------------|-----
A-----5-5-3-3-5-5---------|-------------5-5-----5-5-|-----
E-5-5-------------3-2-0-0-|-0-0-3-3-5-5-----7-7-----|-----
                                                        

Slow Tempo.                      

G----------------------------------------5--------------7--------9---9-7-5-4---
D---------------------------5-4--------5---5--------7-7---7--------------------
A----7-----7-7-----5----5-5-----5---3----------5--5----------7-----------------
E--------7------------5--------------------------------------------------------
                                                                              

G-----------|--------------------------------------------------5--------7------
D-7-5-5h7---|--------------------------------------5-4-------5---5----7---7----
A---------7-|------------7-7-7-7---7----5--5-5---5-----5---3--------5-------7--
E-----------|---0------7---------7-------------5-------------------------------
                                                                              

G-----------4---------|--------------------------------------------------------
D---------5---7-5-4---|-----------------------5-4------------------------------
A--7-7-7------------5-|--7-7---7-7---7--5-5-5-----5--3--3-3-3--5-5-5-5--7-7-7--
E---------------------|------7-----7-------------------------------------------
                                                                              

G---------------------|-------------------------------5-------7--------------|-
D---------------------|--------------------5-4------5---5---7---7------------|-
A-7-7-7-5-3-2---------|--7-----7-7--5--5-5-----5--3-------5------------------|-
E-------------5-3-2-0-|----7-7------------------------------------0-0-0-0-0-0|-
                                                                              
...On a mound.....

G------------------------------------------------------------------------|-----
D------------------------------------------------------------------------|-----
A------------------------------------------------------------------------|-----
E----2-2-2-2-2-2-2-2-4-4-4-4-4-4-4-4-2-2-2-2-2-2-2-2-4-4-4-4-4-4-4-4-4---|-----
                                                                              
Man who do you.....

G----------------------------------------------------------------------------|-
D----------------------------------------------------------------------------|-
A--------7------7--3-3-3-3-3-5-5-5-5-5------7-----7--3-3-3-3-3-3-5-5-5-5-5-5-|-
E----0-0----0-0-------------------------0-0---0-0----------------------------|-

Don't throw the key....                                                                              

G---------------------------------------------------------------------|--------
D---------------------------------------------------------------------|--------
A--------------5---5--2-2-2-2-2-----2-3-3-3-3-5-5-5-5-----------------|--------
E----0-0-0-0-0---0--------------3-5-------------------3-3-3-3-3-5-3-2-|--0-0---
                                                                              

G---------------------------------------------------------------------------|--
D---------------------------------------------------------------------------|--
A-----------------------------------------5-5-5-5-5-5-5-5-------------------|--
E-0-0-7-5-7-7-7-7-7-7-7-7-8-8-8-8-8-8-8-8------------------0-0-0-0-0-0-0-0-0|--
                                                                              
Solo 

G-------------------------------------------------------------------||---
D-------------------------------------------------------------------||---
A----7-7-7-7-7-7-7-7---------7-7-7-7---7-7-7-7-7-7-7-7-----6-6-7---7||---
E--------------------7-7-7-7---------------------------7-7-------7--||---
                                                                              

G------------------------------------------------------------------------------
D------------------------------------------------------------------------------
A----3---2---------------3---2-----------7---7-7-7---7-7-7---7-7-7---7---7-5---
E------5---3-5-2-0-2-3-----5----3-5-2--0---7-------7-------7-------7-----------
                                                                              

G-------------------------------------------------------------------||---
D-------------------------------------------------------------------||---
A-----------------------------------7-7-7-7-7-7-7-7-7-7-7-7-7-7-7-5-||---
E---7-7-7-7-7-7-7-7-7-7-7-7-7-7-7-7---------------------------------||---
                                                                              

G----------------------------------|-------------------------------------------
D----------------------------------|-------------------------------------------
A---7-7-7-7-5-5-5-5-3-3-3-3-2-2-2-2|----------------3--5--7-7-7-7-7-7-7-3--5---
E----------------------------------|--0-0-0-0-0-0-0----------------------------
                                                                              

G-----------------------------------------||---------------------------||------
D-----------------------------------------||---------------------------||------
A-3-3-3-3-3-3-3--7-7-5-5--3-3-3-3-3-3-3/7-||--7-7-7-7-7-7--------------||------
E-----------------------------------------||--------------5-5-5-5-5-5--||------
                                                                              

G---------------------------------------------------------------------|--------
D---------------------------------------------------------------------|--------
A---------------------------------------------------------------------|--------
E----5-5-5-5-5-5-5-5-3-3-3-3-3-3-3-3-1-1-1-1-1-1-1-1-0-0-0-0-0-0-0-0--|--------
                                                                              

G------------------------------------------------------------------------------
D------------------------------------------------------------------------------
A----0-0-0-0-0-0-------------------0-0-0-0-0-0---------------------------------
E----------------0-0-1-1-1-1-1-3-3-------------3-3-1-1-0-0-0-0-0-0-0-0-1-1-1---
                                                                              

G----------------------------------------------------|----
D----------------------------------------------------|----
A------------3-3-3-3-3-3-3-3-2---------------------0-|----
E-1-1-1-1-1--------------------5-3-1-1-1-1-3-3-3-3---|----
         
                                                                     
.........An earthquake...

G-----------------------------------------------------------|---
D-----------------------------------------------------------|---
A------------------------------------------3-3--------------|---
E----3---5---0---1---3-5---3---0--0---1-1-------1-1-3-3-5-5-|---
                         

Repeat Chorus and then:


Yes the tyrant is dead....                                                     

G--------------------------------------------------------------------|---
D------------------------2-------------------------------------------|---
A-----3-----------0-------------0------------------------------------|---
E-----------3--------------------------3--------1-------0--------5---|---
                                                                              


End.





Comments


Popular Helloween tabs & chords
Falling Higher Bass Tabs
Grapowskis Malmsuite 1001 Bass Tabs
Mirror Mirror Bass Tabs
Forever And One Tabs
I Can 3 Tabs
Initiation Tabs
Time 1 Tabs
Warrior Intro Tabs
Forever And One Ukulele
Longing Ukulele


Song lyrics



↑ Back to top | Tablatures and chords are parodies/interpretations of the original songs. You may use it for private study, scholarship, research or language learning purposes only
© 2014 AZChords.com Contact us | Privacy policy | DMCA | Add/correct tabs | Request tabs | Top 50 tabs