>
 >
I Want Out 1

I Want Out 1 Guitar Tabs

Helloween - I Want Out 1 chords, tabs, tablatures, lyrics

Guitar lessons | Add/correct | Request | Top 50 tabs Artists:  A B C D E F G H I J K L M N O P Q R S T U V W X Y Z 0-9

I Want Out 1 Guitar Tabs – Helloween

CD, Sheet music, Poster

Do you like I Want Out 1? Share with your friends now
Bass TabsBass Tabs v2Bass Tabs v3Bass Tabs v4Drum TabsTabsTabs v2Tabs v3Tabs v4
Standard Tuning
\\\ = Pick Scrape
PM = Palm Mute
 ~ = Let Ring
Listen to the song for the right timing.

INTRO:
e|--------------------------------------------------------------------------
B|--------------------------------------------------------------------------
G|----7~---3~----------5---------5---7~---3~----------5---------5---7~------
D|----7~---3~----------5---------5---7~---3~----------5---------5---7~------
A|----5~---1~----3--3--3---3--3--3---5~---1~----3--3--3---3--3--3---5~------
E|--------------------------------------------------------------------------
                PM PM     PM PM                PM PM     PM PM

---3~----------5---------5---7~---3~----------5---------5---7~----12-12-10--9--5-7~-
---3~----------5---------5---7~---3~----------5---------5---7~----12-12-10--9--5-7~-
---1~----3--3--3---3--3--3---5~---1~----3--3--3---3--3--3---5~----10-10-8---7--3-5~-
        PM PM     PM PM                PM PM     PM PM  

VERSE 1:

-----------12-12-10---9---5-7~---------------------------------
-----------12-12-10---9---5-7~---------------------------------
-----------10-10-8----7---3-5~----------------------------------
like to be,                In school they teach you what to think,but everyone 

says different things,but they're all convinced that they're the ones to see 

PRE-CHORUS
7--7--------5~----------------------------------------------------------
7--7--------5~----------------------------5~----------------------------
5--5--------3~----------------------------5~------------------------------
------------------------------------------3~--------------------------------
So they keep talking and they never stop, at certains point you give it up,


-------8~-----------------------------------7-7-7-7-7-7-7-7-7----
-------8~-----------------------------------7-7-7-7-7-7-7-7-7----
-------6~-----------------------------------5-5-5-5-5-5-5-5-5----
so the owly thing that's left to think is this

CHORUS:
-----10-9----7~---------3~-------------5-------5---7~------------
---7-10-9----7~---------3~-------------5-------5---7~-----------
---7-8--7----5~---------1~--------3-3--3--3-3--3---5~--------------
---5-----------------------------------------------------------
                                 PM PM   PM PM
    (I  want out...) To live my life alone (I want out...) 

-3~-------------5-------5---7~----------3~---------------5-------5----7~------
-3~-------------5-------5---7~----------3~---------------5-------5----7~------
-1~--------3-3--3--3-3--3---5~----------1~----------3-3--3--3-3--3----5~------
          PM PM   PM PM                            PM PM   PM PM
 Leave me be        (I want out...)  To do things on my own   (I want out...) 

------------------------------------------------- 
-------------------------------------------
---3~-------5--5--5--5--5---7~--------
---3~-------5--5--5--5--5---7~--------
---1~-------3--3--3--3--3---5~-------------
-------------------------------------------------
To live my life and to be   free
  
FILL 1:
-------------------------------------------------------------
----------------------------------------------------------
--3~---------5-------5----7~---3~---------5-------5-----
--3~---------5-------5----7~---3~---------5-------5-----
--1~----3-3--3--3-3--3----5~---1~----3-3--3--3-3--3-------
-------------------------------------------------------------
       PM PM   PM PM                PM PM   PM PM
VERSE 2:
------7--------7--------7--------7--------7--------7--------7----------
------7--------7--------7--------7--------7--------7--------7----------
5--5--5--5--5--5--5--5--5--5--5--5--5--5--5--5--5--5--5--5--5--5--5----
PM PM    PM PM    PM PM    PM PM    PM PM    PM PM    PM PM    PM PM
People     tell     me   A   and B             they  tell   me how I 

3--------3--------3--------5--------5--------5--------5--------5--------7--------
3--------3--------3--------5--------5--------5--------5--------5--------7--------
1--1--1--1--1--1--1--3--3--3--3--3--3--3--3--3--3--3--3--3--3--3--5--5--5--5--5--
   PM PM    PM PM    PM PM    PM PM    PM PM    PM PM    PM PM    PM PM    PM PM
have     to    see      Things  that I have   seen       already     clear


7----------12-12-10---9---5-7---------7--------7--------7--------7--------7--------7-
7----------12-12-10---9---5-7---------7--------7--------7--------7--------7--------7-
5--5--5----10-10-8----7---3-5------5--5--5--5--5--5--5--5--5--5--5--5--5--5--5--5--5-
  PM  PM                          PM     PM PM    PM PM    PM PM    PM PM    PM PM 
                          so they push me then from side to side, they're pushing

------7--------3--------3--------3--------5--------5--------5--------5--------5----
------7--------3--------3--------3--------5--------5--------5--------5--------5----
5--5--5--5--5--1--1--1--1--1--1--1--3--3--3--3--3--3--3--3--3--3--3--3--3--3--3----
PM PM    PM PM    PM PM    PM PM    PM PM    PM PM    PM PM    PM PM    PM PM
 me   from    black     to    white,  they're pushing'til  there's nothing more

----------------------------------------------------------
-----------------------------------------------------
------7--------7--------7--------7-----7--7-------
------7--------7--------7--------7-----7--7-------
5--5--5--5--5--5--5--5--5--5--5--5-----5--5----------
----------------------------------------------------------
PM PM    PM PM    PM PM    PM PM

to hear

PRE-CHORUS:
----------------------------------------------------------
--------------------------------------------------------------
---------------5-------------------------------------------------
---------------5-----------------------------5~---------------------
---------------3-----------------------------5~--------------------------
---------------------------------------------3~-----------------------------
But don't push me to the maximium, shut your mounth and take it home,

------------------------------------------------------------
---------------------------------------------------------
--------------------------------------------------------
------8~---------------------------7-7-7-7-7-7-7-7------
------8~---------------------------7-7-7-7-7-7-7-7-------
------6~---------------------------5-5-5-5-5-5-5-5----------
'cause I decide the way things gonna be

CHORUS:
--------------------------------------------------------------
----10-9----7~---------3~-------------5-------5---7~------------
--7-10-9----7~---------3~-------------5-------5---7~-------------
--7-8--7----5~---------1~--------3-3--3--3-3--3---5~--------------
--5----------------------------------------------------------------
                                PM PM   PM PM
   (I  want out...) To live my life alone (I want out...) 

-3~-------------5-------5---7~----------3~---------------5-------5----7~------
-3~-------------5-------5---7~----------3~---------------5-------5----7~------
-1~--------3-3--3--3-3--3---5~----------1~----------3-3--3--3-3--3----5~------
          PM PM   PM PM                            PM PM   PM PM
 Leave me be        (I want out...)  To do things on my own   (I want out...) 

------------------------------------------------- 
-------------------------------------------
---3~-------5--5--5--5--5---7~--------
---3~-------5--5--5--5--5---7~--------
---1~-------3--3--3--3--3---5~-------------
-------------------------------------------------
To live my life and to be   free

FILL 2:
------------------------------
--------------------------                 
----\\\\\\\\\\\\\\----  Weird Pedal Effect for this pick Scrape!
----\\\\\\\\\\\\\\----
----\\\\\\\\\\\\\\-------
------------------------------

BRIDGE 1:
--------------------------------------------------------------
------------7------7----7---7------------------------7--------
------------7------7----7---7------------------------7-------------
5--5--5--5--5------5----5---5------------5--5--5--5--5-----------------
PM PM PM PM                             PM PM PM PM
           there's a million ways to see the things in life, 

------------5---5-5--5-----------------5-----------------3------3---3--3-----
------------5---5-5--5-----------------5-----------------3------3---3--3--------
3--3--3--3--3---3-3--3-----3--3--3--3--3-----1--1--1--1--1------1---1--1----------
PM PM PM PM               PM PM PM PM       PM PM PM PM       
a million ways to be the fool,                           in the end of it 

--------------------------------------------------------------
------------------------------------------------------------
-3---3---3---------------------5~-----------------------2----
-3---3---3---------------------5~-----------------------2------
-1---1---1---------------------3~-----------------------0---------
 none of us is right         sometimes we need to be alone

BRIDGE 2:   (Rythem while lead does solo)
--7~--3~--5~--2~----------3-----------3---------5-----------5-----------
--7~--3~--5~--2~----------3-----------3---------5-----------5-----------
--5~--1~--3~--0~----1--1--1--1--1--1--1---3--3--3--3--3--3--3-----------
                   PM  PM    PM PM PM     PM PM    PM PM PM
--------7--------7--------7--------7--------7-------7~--1~--5~--2~--7~--7~--
--------7--------7--------7--------7--------7-------7~--1~--5~--2~--7~--5~--
--5--5--5--5--5--5--5--5--5--5--5--5--5--5--5-------5~--3~--3~--0~--5~------
  PM PM    PM PM    PM PM    PM PM    PM PM     





---------------------------------------------------7~---9-10~-----5~-------
-------2--------2--------2--------2--------2-------7~---9-10~-----5~-------
-------2--------2--------2--------2--------2-------5~---7-8-~-----3~-------
-0--0--0--0--0--0--0--0--0--0--0--0--0--0--0-------------------------------
 PM PM    PM PM    PM PM    PM PM    PM PM
--7~---9-10~-----5~--------7~---9-10~-----5~--------7~---9-10~-----5~--------7~--
--7~---9-10~-----5~--------7~---9-10~-----5~--------7~---9-10~-----5~--------7~--
--5~---7-8-~-----3~--------5~---7-8-~-----3~--------5~---7-8-~-----3~--------5~--

~~~~~~~~~~~~~~~~~~~~~~~~~~~~~~~~~~~~
DRUM FILL & BASS, AND CRAZY FEEDBACK 
~~~~~~~~~~~~~~~~~~~~~~~~~~~~~~~~~~~~


CHORUS:
----10-9----7~---------3~-------------5-------5---7~------------
--7-10-9----7~---------3~-------------5-------5---7~-----------
--7-8--7----5~---------1~--------3-3--3--3-3--3---5~--------------
--5------------------------------------------------------------
                                PM PM   PM PM
   (I  want out...) To live my life alone (I want out...) 

-3~-------------5-------5---7~----------3~---------------5-------5----7~------
-3~-------------5-------5---7~----------3~---------------5-------5----7~------
-1~--------3-3--3--3-3--3---5~----------1~----------3-3--3--3-3--3----5~------
          PM PM   PM PM                            PM PM   PM PM
 Leave me be        (I want out...)  To do things on my own   (I want out...) 

----------------------------------------------------------
------------------------------------------------------
---3~-------5--5--5--5--5-----9~------------------
---3~-------5--5--5--5--5-----9~------------------
---1~-------3--3--3--3--3-----7~----------------------
----------------------------------------------------------
To live my life and to be     free!!!

FILL 3/OUTRO:
-5~-------7-------7---9~-----5~-------7-------7---9~-----5~-------7-------7---9~--
-5~-------7-------7---9~-----5~-------7-------7---9~-----5~-------7-------7---9~--
-3~--5-5--5--5-5--5---7~-----3~--5-5--5--5-5--5---7~-----3~--5-5--5--5-5--5---7~--
    PM PM   PM PM               PM PM   PM PM               PM PM   PM PM

--------------------------------------------------------
--------------------------------------------------
-5~-------7-------7----9-9-----9-9----------
-5~-------7-------7----9-9-----9-9----------
-3~--5-5--5--5-5--5----7-7-----7-7-----------------
--------------------------------------------------------
    PM PM   PM PM
             I want out!!!  

~`~`~`~`~`~`~`~`~`~`~`~`~`~`~`~`~`~`~`~`~`~`~`~`~`~`~`~`~`~`~`~`~`
THERE, ALL DONE!  i ain't sure how good it is, but oh well.





Comments


Popular Helloween tabs & chords
Kings Will Be Kings 2 Bass Tabs
The Dark Ride Bass Tabs
Victim Of Fate Bass Tabs
Future World Drum Tabs
I Want Out Tabs
Im Alive 1 Tabs
Murderer Tabs
Savage Tabs
The King For A 1000 Years Intro Tabs
When The Sinner Tabs


Song lyrics



↑ Back to top | Tablatures and chords are parodies/interpretations of the original songs. You may use it for private study, scholarship, research or language learning purposes only
© 2014 AZChords.com Contact us | Privacy policy | DMCA | Add/correct tabs | Request tabs | Top 50 tabs