>
 >
Halloween

Halloween Bass Tabs

Helloween - Halloween chords, tabs, tablatures, lyrics

Guitar lessons | Add/correct | Request | Top 50 tabs Artists:  A B C D E F G H I J K L M N O P Q R S T U V W X Y Z 0-9

Halloween Bass Tabs – Helloween

CD, Sheet music, Poster

Do you like Halloween? Share with your friends now
Bass TabsBass Tabs v2Bass Tabs v3Tabs
G||------|------------------|------------------|------------------|
D||------|------------------|------------------|------------------|
A||------|------------------|------------------|------------------|
E||------|------------------|------------------|------------------|


                                                                                
-------------------|-------------------|-------------------|-------------------|
----------2--------|-------------------|-------------------|-------------------|
-------------------|-------------------|----------2--------|--1----------------|
-------------------|--0----------------|-------------------|-------------------|


                                                              
---------------------|-------------------|-------------------|
------2--------------|-------------------|-------------------|
---------------------|-------------------|----------6--------|
-----------3----2----|--0----------------|-------------------|


                                                                               
-------------------|------------------|-------------------|-------------------|
--4----------------|------------------|-------------------|-------------------|
-------------------|------------------|-------------------|----------2--------|
-------------------|------------------|--0----------------|-------------------|


                                                              
-------------------|---------------------|-------------------|
-------------------|------2--------------|-------------------|
--1----------------|---------------------|-------------------|
-------------------|-----------3----2----|--0----------------|


                                                              
-------------------|-------------------|---------------------|
-------------------|--4----------------|-----------4----5----|
----------6--------|-------------------|------5--------------|
-------------------|-------------------|---------------------|


                                                               
--------------------|--------------------|--------------------|
--------------------|--------------------|--------------------|
--------------------|-----------2--------|--1------------1----|
--0------------0----|--0-----------------|--------------------|


                                                                 
----------------------|--------------------|--------------------|
-------2--------------|--------------------|--2--------1--------|
--1-------------------|--------------------|--------------------|
------------3----2----|--0------------0----|--------------------|


                                                                 
--------------------|----------------------|--------------------|
--4------------4----|--4----5----4----3----|--------------------|
--------------------|----------------------|--------------------|
--------------------|----------------------|--0------------0----|


                                                                 
--------------------|--------------------|----------------------|
--------------------|--------------------|-------2--------------|
-----------2--------|--1------------1----|--1-------------------|
--0-----------------|--------------------|------------3----2----|


                                                              
--------------------|--------------------|-------------------|
--------------------|--2--------1--------|--0----------------|
--------------------|--------------------|-------------------|
--0------------0----|--------------------|-------------------|


                                                          
------------------------------|--------------------------|
--2--2-2-2--2-2-2--2-2-2--2-2-|--2--------------5-5-4----|
------------------------------|-----2-2-2--1-------------|
------------------------------|--------------------------|


                                                          
------------------------------|--------------------------|
--2--2-2-2--2-2-2--2-2-2--2-2-|--2-----------------5-----|
------------------------------|-----------------------5--|
------------------------------|-----0--7--0--6--0--------|


                                                          
------------------------------|--------------------------|
--2--2-2-2--2-2-2--2-2-2--2-2-|--2--------------5-5-4----|
------------------------------|-----2-2-2--1-------------|
------------------------------|--------------------------|


                                                                          
------------------------------|-----------------------|------------------|
--2--2-2-2--2-2-2--2-2-2--2-2-|--2--------------------|------------------|
------------------------------|-----5-5-5--3----------|------------------|
------------------------------|-----------------------|------------------|


                                                                         
-----------|--------------------------------|---------------------------|
-----------|--2-2-2-2-2--0h2-2-2-2-2-2------|----------2-2-3----2----3--|
------3----|----------------------------3-3-|--3-3-5-5------------------|
-----------|--------------------------------|---------------------------|


                                                                  
--------------------------------|--------------------------------|
--2-2-2-2-2--0h2-2-2-2-2-2------|--------------------------------|
----------------------------3-3-|--3-3-3-3-3-3-3-3-3-3-3-3-3--0--|
--------------------------------|--------------------------------|


                                                                
-------------------------------|-------------------------------|
-------------------------------|-------------------------------|
--5-5-5-5-5-5-5-5-5-5-5-5-5----|-------------------------------|
-------------------------------|--0--0-0-0--0-0-0--0-0-0-0-0-0-|


                                                               
-----------------------------|--------------------------------|
-----------------------------|--2-2-2-2-2--0h2-2-2-2-2-2------|
------------------------5----|----------------------------3-3-|
--0--0-0-0--0-0-0-0-0-0------|--------------------------------|


                                                             
---------------------------|--------------------------------|
----------2-2-3----2----3--|--2-2-2-2-2--0h2-2-2-2-2-2------|
--3-3-5-5------------------|----------------------------3-3-|
---------------------------|--------------------------------|


                                                                
-------------------------------|-------------------------------|
-------------------------------|-------------------------------|
--3-3-3-3-3-3-3-3-3-3-3-3-3----|--5-5-5-5-5-5-5-5-5-5-5-5-5----|
-------------------------------|-------------------------------|


                                                                 
-------------------------------|--------------------------------|
-------------------------------|--------------------------------|
-------------------------------|--------------------------------|
--0--0-0-0--0-0-0--0-0-0-0-0-0-|--0--0-0-0--0-0-0-0-0-0-0-0-0-0-|


                                                                              
--------------7-----------|-----------------------|-----9--------------------|
--------------------------|-----5----4----2-------|--------------------------|
--5--5--5--5-----5--5--5--|--5-----------------5--|--7-----7--7--7--7--7--7--|
--------------------------|-----------------------|--------------------------|


                                                          
------------------------------|--------------7-----------|
-----9-9-9--7-7-7--5-5-5--4-4-|--------------------------|
--7---------------------------|--5--5--5--5-----5--5--5--|
------------------------------|--------------------------|


                                                   
-----------------------|-----9--------------------|
-----5----4----2-------|--------------------------|
--5-----------------5--|--7-----7--7--7--7--7--7--|
-----------------------|--------------------------|


                                                                  
------------------------------|----------------------------------|
-----9-9-9--7-7-7--5-5-5--4-4-|----------------------------------|
--7---------------------------|--3-3-3-3-3-3-3-3-3-3-3-3-3-3-3-3-|
------------------------------|----------------------------------|


                                                                  
--------------------------------|--------------------------------|
--5--5--5-5-5-5-5-5-5-5-5-5-5-5-|--------------------------------|
--------------------------------|--2--2--2-2-2-2-2-2-2-2-2-2-2-2-|
--------------------------------|--------------------------------|


                                                                
----------------------------|----------------------------------|
--2-2-2-2-2-2-2-2-----------|--5-5-5-5-5-5-5-5-5-5-5-5-5-5-5-5-|
----------------------------|----------------------------------|
------------------0----2----|----------------------------------|


                                                                   
----------------------------------|-------------------------------|
----------------------------------|-------------------------------|
--5-5-5-5-5-5-5-5-5-5-5-5-5-5-5-5-|-------------------------------|
----------------------------------|--0--0-0-0--0-0-0--0-0-0-0-0-0-|


                                                             
----------------------------|-------------------------------|
----------------------2--4--|--5----5-5-5-5-5-5-5-5-5-5-5-5-|
----------------------------|-------------------------------|
--0--0-0-0--0-0-0--0--------|-------------------------------|


                                                                      
----------------------------------|----------------------------------|
----------------------------------|----------------------------------|
--5-5-5-5-5-5-5-5-5-5-5-5-5-5-5-5-|--2-2-2-2-2-2-2-2-2-2-2-2-2-2-2-2-|
----------------------------------|----------------------------------|


                                                                
----------------------------|----------------------------------|
--2-2-2-2-2-2-2-2-----------|--5-5-5-5-5-5-5-5-5-5-5-5-5-5-5-5-|
----------------------------|----------------------------------|
------------------0----2----|----------------------------------|


                                                                      
----------------------------------|----------------------------------|
----------------------------------|----------------------------------|
--5-5-5-5-5-5-5-5-5-5-5-5-5-5-5-5-|----------------------------------|
----------------------------------|--2-2-2-2-2-2-2-2-2-2-2-2-2-2-2-2-|


                                                                      
----------------------------------|----------------------------------|
----------------------------------|----------------------------------|
----------------------------------|----------------------------------|
--3-3-3-3-3-3-3-3-3-3-3-3-3-3-3-3-|--5-5-5-5-5-5-5-5-5-5-5-5-5-5-5-5-|


                                                                               
----------------------------------|--------------------|----------------------|
----------------------------------|--2-----------------|-------5----4---------|
--2-2-2-2-2-2-2-2-2-2-2-2-2-2-2-2-|---------------3----|--2--------------5----|
----------------------------------|--------------------|----------------------|


                                                                 
--------------------|----------------------|--------------------|
--2-----------------|----------------------|--------------------|
---------------3----|--2--------5----2--5--|---------------3----|
--------------------|----------------------|--0-----------------|


                                                                
----------------------|--------------------|-------------------|
-------5----4---------|--2-----------------|-------------------|
--2--------------5----|---------------5----|--3----------------|
----------------------|--------------------|-------------------|


                                                                              
-------------------|------------------------------|--------------------------|
-------------------|--2--2-2-2--2-2-2--2-2-2--2-2-|--2--------------5-5-4----|
--------------3----|------------------------------|-----2-2-2--1-------------|
-------------------|------------------------------|--------------------------|


                                                          
------------------------------|--------------------------|
--2--2-2-2--2-2-2--2-2-2--2-2-|--2-----------------5-----|
------------------------------|-----------------------5--|
------------------------------|-----0--7--0--6--0--------|


                                                          
------------------------------|--------------------------|
--2--2-2-2--2-2-2--2-2-2--2-2-|--2--------------5-5-4----|
------------------------------|-----2-2-2--1-------------|
------------------------------|--------------------------|


                                                                          
------------------------------|-----------------------|------------------|
--2--2-2-2--2-2-2--2-2-2--2-2-|--2--------------------|------------------|
------------------------------|-----5-5-5--3----------|------------------|
------------------------------|-----------------------|------------------|


                                                                         
-----------|--------------------------------|---------------------------|
-----------|--2-2-2-2-2h-0-2-2-2-2-2-2------|----------2-2-3----2----3--|
------3----|----------------------------3-3-|--3-3-5-5------------------|
-----------|--------------------------------|---------------------------|


                                                                  
--------------------------------|--------------------------------|
--2-2-2-2-2--0h2-2-2-2-2-2------|--------------------------------|
----------------------------3-3-|--3-3-3-3-3-3-3-3-3-3-3-3-3--0--|
--------------------------------|--------------------------------|


                                                                
-------------------------------|-------------------------------|
-------------------------------|-------------------------------|
--5-5-5-5-5-5-5-5-5-5-5-5-5----|-------------------------------|
-------------------------------|--0--0-0-0--0-0-0--0-0-0-0-0-0-|


                                                               
-----------------------------|--------------------------------|
-----------------------------|--2-2-2-2-2--0h2-2-2-2-2-2------|
------------------------5----|----------------------------3-3-|
--0--0-0-0--0-0-0-0-0-0------|--------------------------------|


                                                             
---------------------------|--------------------------------|
----------2-2-3----2----3--|--2-2-2-2-2--0h2-2-2-2-2-2------|
--3-3-5-5------------------|----------------------------3-3-|
---------------------------|--------------------------------|


                                                                
-------------------------------|-------------------------------|
-------------------------------|-------------------------------|
--3-3-3-3-3-3-3-3-3-3-3-3-3----|--5-5-5-5-5-5-5-5-5-5-5-5-5----|
-------------------------------|-------------------------------|


                                                                 
-------------------------------|--------------------------------|
-------------------------------|--------------------------------|
-------------------------------|--------------------------------|
--0--0-0-0--0-0-0--0-0-0-0-0-0-|--0--0-0-0--0-0-0-0-0-0-0-0-0-0-|


                                                                              
--------------7-----------|-----------------------|-----9--------------------|
--------------------------|-----5----4----2-------|--------------------------|
--5--5--5--5-----5--5--5--|--5-----------------5--|--7-----7--7--7--7--7--7--|
--------------------------|-----------------------|--------------------------|


                                                          
------------------------------|--------------7-----------|
-----9-9-9--7-7-7--5-5-5--4-4-|--------------------------|
--7---------------------------|--5--5--5--5-----5--5--5--|
------------------------------|--------------------------|


                                                   
-----------------------|-----9--------------------|
-----5----4----2-------|--------------------------|
--5-----------------5--|--7-----7--7--7--7--7--7--|
-----------------------|--------------------------|


                                                                  
------------------------------|----------------------------------|
-----9-9-9--7-7-7--5-5-5--4-4-|----------------------------------|
--7---------------------------|--3-3-3-3-3-3-3-3-3-3-3-3-3-3-3-3-|
------------------------------|----------------------------------|


                                                                  
--------------------------------|--------------------------------|
--5--5--5-5-5-5-5-5-5-5-5-5-5-5-|--------------------------------|
--------------------------------|--2--2--2-2-2-2-2-2-2-2-2-2-2-2-|
--------------------------------|--------------------------------|


                                                                
----------------------------|----------------------------------|
--2-2-2-2-2-2-2-2-----------|--5-5-5-5-5-5-5-5-5-5-5-5-5-5-5-5-|
----------------------------|----------------------------------|
------------------0----2----|----------------------------------|


                                                                   
----------------------------------|-------------------------------|
----------------------------------|-------------------------------|
--5-5-5-5-5-5-5-5-5-5-5-5-5-5-5-5-|-------------------------------|
----------------------------------|--0--0-0-0--0-0-0--0-0-0-0-0-0-|


                                                             
----------------------------|-------------------------------|
----------------------2--4--|--5----5-5-5-5-5-5-5-5-5-5-5-5-|
----------------------------|-------------------------------|
--0--0-0-0--0-0-0--0--------|-------------------------------|


                                                                      
----------------------------------|----------------------------------|
----------------------------------|----------------------------------|
--5-5-5-5-5-5-5-5-5-5-5-5-5-5-5-5-|--2-2-2-2-2-2-2-2-2-2-2-2-2-2-2-2-|
----------------------------------|----------------------------------|


                                                                
----------------------------|----------------------------------|
--2-2-2-2-2-2-2-2-----------|--5-5-5-5-5-5-5-5-5-5-5-5-5-5-5-5-|
----------------------------|----------------------------------|
------------------0----2----|----------------------------------|


                                                                      
----------------------------------|----------------------------------|
----------------------------------|----------------------------------|
--5-5-5-5-5-5-5-5-5-5-5-5-5-5-5-5-|----------------------------------|
----------------------------------|--2-2-2-2-2-2-2-2-2-2-2-2-2-2-2-2-|


                                                                      
----------------------------------|----------------------------------|
----------------------------------|----------------------------------|
----------------------------------|--0-0-0-0-0-0-0-0-0-0-0-0-0-0-0-0-|
--3-3-3-3-3-3-3-3-3-3-3-3-3-3-3-3-|----------------------------------|


                                                                               
----------------------------------|--------------------|----------------------|
----------------------------------|--2-----------------|-------5----4---------|
--2-2-2-2-2-2-2-2-2-2-2-2-2-2-2-2-|---------------3----|--2--------------5----|
----------------------------------|--------------------|----------------------|


                                                                 
--------------------|----------------------|--------------------|
--2-----------------|----------------------|--------------------|
---------------3----|--2--------5----2--5--|---------------3----|
--------------------|----------------------|--0-----------------|


                                                                
----------------------|--------------------|-------------------|
-------5----4---------|--2-----------------|-------------------|
--2--------------5----|---------------5----|--3----------------|
----------------------|--------------------|-------------------|


                                                              
------------------|--------------------|---------------------|
------------------|--------------------|---------------------|
------------------|--------------------|--5----------5----5--|
------------------|--0--------------0--|---------------------|


                                                                
-------------------|--7------5----4-------|--------------------|
-------------------|--9------7----5-------|--------------------|
--7----------------|-------------------5--|--7--------------7--|
-------------------|----------------------|--------------------|


                                                                 
---------------------|-------------------|--7------5----4-------|
---------------------|-------------------|--9------7----5-------|
--5----------5----5--|--7----------------|-------------------5--|
---------------------|-------------------|----------------------|


                                                                             
--------------------9----|--------------------7----|--------9----------7----|
-------------------------|-------------------------|------------------------|
--7--7--7--7--7--7-------|--7--7--7--7--7--7-------|--7--7-------7--7-------|
-------------------------|-------------------------|------------------------|


                                                                              
-------------------------|--------------------9----|--------------------7----|
--------10----------9----|-------------------------|-------------------------|
--7--7--------7--7-------|--7--7--7--7--7--7-------|--7--7--7--7--7--7-------|
-------------------------|-------------------------|-------------------------|


                                                                             
--------9----------7----|-------------------------|--------------------9----|
------------------------|--------10----------9----|-------------------------|
--7--7-------7--7-------|--7--7--------7--7-------|--7--7--7--7--7--7-------|
------------------------|-------------------------|-------------------------|


                                                                             
--------------------7----|--------9----------7----|-------------------------|
-------------------------|------------------------|--------10----------9----|
--7--7--7--7--7--7-------|--7--7-------7--7-------|--7--7--------7--7-------|
-------------------------|------------------------|-------------------------|


                                                                             
--------------------9----|--------------------7----|--------9----------7----|
-------------------------|-------------------------|------------------------|
--7--7--7--7--7--7-------|--7--7--7--7--7--7-------|--7--7-------7--7-------|
-------------------------|-------------------------|------------------------|


                                                                     
-------------------------|------------5--------|--------------------|
--------10----------9----|---------------------|--------------------|
--7--7--------7--7-------|--3------3-----------|----------------3-3-|
-------------------------|---------------------|--------------------|


                                                                
-------------------|-------------------|-----------------------|
-------------------|--------------2----|-----------------------|
--3----------------|-------------------|--------------5--------|
-------------------|-------------------|--0--0----0-0----------|


                                                                         
------------------------|-----------------------|-----------------------|
------------------------|-----------------------|-----------1--2--------|
--5--5----5-5-7--7------|--3--3----3-3-2--------|--5--3--2--------------|
------------------------|-----------------------|-----------------------|


                                                                         
-----------------------|------------------------|-----------------------|
-----------------------|------------------------|-----------------------|
--------------5--------|--5--5----5-5-7--7------|--3--3----3-3-2--------|
--0--0----0-0----------|------------------------|-----------------------|


                                                                            
--------------------------|-----------------------|------------------------|
--0--------1--2-----------|-----------------------|------------------------|
-----3--2--------2--------|--------------5--------|--5--5----5-5-7--7------|
--------------------3--2--|--0--0----0-0----------|------------------------|


                                                                              
-----------------------|--------------------------|--------------------------|
-----------------------|--0--------1--2-----------|--------------------------|
--3--3----3-3-2--------|-----3--2--------2--------|--------------5--5--5--5--|
-----------------------|--------------------3--2--|--0--0--0--0--------------|


                                                      
--------------------------|--------------------------|
--------------------------|--------------------------|
--5--5--5--5--7--7--7--7--|--3--3--3--3--2--2--2--2--|
--------------------------|--------------------------|


                                                      
--------------------------|--------------------------|
--0--------1--2-----------|--------------------------|
-----3--2--------2--------|--------------5--5--5--5--|
--------------------3--2--|--0--0--0--0--------------|


                                                      
--------------------------|--------------------------|
--------------------------|--------------------------|
--5--5--5--5--7--7--7--7--|--3--3--3--3--2--2--2--2--|
--------------------------|--------------------------|


                                                      
--------------------------|--------------------------|
--0--------1--2-----------|--------------------------|
-----3--2--------2--------|--------------5--5--5--5--|
--------------------3--2--|--0--0--0--0--------------|


                                                      
--------------------------|--------------------------|
--------------------------|--------------------------|
--5--5--5--5--7--7--7--7--|--3--3--3--3--2--2--2--2--|
--------------------------|--------------------------|


                                                                            
--------------------------|-----------------------|------------------------|
--0--------1--2-----------|-----------------------|------------------------|
-----3--2--------2--------|--------------5--------|--5--5----5-5-7--7------|
--------------------3--2--|--0--0----0-0----------|------------------------|


                                                             
-------------------|-------------------|--------------------|
-------------------|-------------------|--------------------|
--3----------------|--2----------------|--------------------|
-------------------|-------------------|------0--------0----|


                                                                 
--------------------|--------------------|----------------------|
--------------------|--------------------|----------------------|
--------------------|--------------------|----------------------|
------0--------0----|------0--------0----|------0------0--3--0--|


                                                               
--------------------|--------------------|--------------------|
--------------------|--------------------|--------------------|
--------------------|--------------------|--------------------|
------0--------0----|------0--------0----|------0--------0----|


                                                                
---------------------|--------------------|--------------------|
---------------------|--------------------|--------------------|
---------------------|--------------------|--------------------|
------0------0--0----|------0--------0----|------0--------0----|


                                                                    
-------------------|--------------------------|--------------------|
-------------------|--------------------------|--------------------|
--3----------------|--3--2--3--5--3--2--------|--------------------|
-------------------|--------------------3--2--|------0--------0----|


                                                                 
--------------------|--------------------|----------------------|
--------------------|--------------------|----------------------|
--------------------|--------------------|----------------------|
------0--------0----|------0--------0----|------0------0--3--0--|


                                                                       
--------------------|-----------|------------------|------------------|
--------------------|-----------|------------------|------------------|
--------------------|-----------|------------------|------------------|
------0--------0----|------0----|------------------|------------------|


                                                                                
-------------------|--------------------------|--------------------------------|
-------------------|--------------------------|--------------------------------|
--3----------------|--3--2--3--5--3--2--------|--7-7-7-7-7--7-7-7-7-7-7-7--7-7-|
-------------------|--------------------3--2--|--------------------------------|


                                                                      
----------------------7-------------|--------------------------------|
-----------------9h10---10-9-7------|--------------------------------|
--7-7-7-7-7--7-7---------------10-9-|--7-7-7-7-7--7-7-7-7-7-7-7--7-7-|
------------------------------------|--------------------------------|


                                                                      
----------------------7-------------|--------------------------------|
-----------------9h10---10-9-7------|--------------------------------|
--7-7-7-7-7--7-7---------------10-9-|--7-7-7-7-7--7-7-7-7-7-7-7--7-7-|
------------------------------------|--------------------------------|


                                                                      
----------------------7-------------|--------------------------------|
-----------------9h10---10-9-7------|--------------------------------|
--7-7-7-7-7--7-7---------------10-9-|--7-7-7-7-7--7-7-7-7-7-7-7--7-7-|
------------------------------------|--------------------------------|


                                                                      
----------------------7-------------|--------------------------------|
-----------------9h10---10-9-7------|----------4--------------4------|
--7-7-7-7-7--7-7---------------10-9-|--------------------------------|
------------------------------------|--2-2-2-2----2-2-2-2-2-2----2-2-|


                                                                  
--------------------------------|--------------------------------|
----------4--------------4------|----------4--------------4------|
--------------------------------|--------------------------------|
--2-2-2-2----2-2-2-2-2-2----2-2-|--2-2-2-2----2-2-2-2-2-2----2-2-|


                                                                   
-----------------6-7-9-7-6-------|--------------------------------|
----------4----------------9-7-6-|----------4--------------4------|
---------------------------------|--------------------------------|
--2-2-2-2----2-2-----------------|--2-2-2-2----2-2-2-2-2-2----2-2-|


                                                                  
--------------------------------|--------------------------------|
----------4--------------4------|----------4--------------4------|
--------------------------------|--------------------------------|
--2-2-2-2----2-2-2-2-2-2----2-2-|--2-2-2-2----2-2-2-2-2-2----2-2-|


                                                                
------------------------------|--------------------------------|
----------4--------------2----|--2-2-2-2-2--2-2-2-2-2-2-2--2-2-|
------------------------------|--------------------------------|
--2-2-2-2----2-2-2-2-2-2------|--------------------------------|


                                                              
----------------------------|--------------------------------|
--2-2-2-2-2--2-2-2-------2--|--2-2-2-2-2--2-2-2-2-2-2-2--2-2-|
--------------------2-------|--------------------------------|
----------------------------|--------------------------------|


                                                              
----------------------------|--------------------------------|
--2-2-2-2-2--2-2-2-------2--|----------4--------------4------|
--------------------2-------|--------------------------------|
----------------------------|--2-2-2-2----2-2-2-2-2-2----2-2-|


                                                                  
--------------------------------|--------------------------------|
----------4--------------2------|----------4--------------4------|
--------------------------------|--------------------------------|
--2-2-2-2----2-2-2-2-2-2----2-2-|--2-2-2-2----2-2-2-2-2-2----2-2-|


                                                                  
--------------------------------|--------------------------------|
----------4--------------2------|--2-2-2-2-2--2-2-2-2-2-2-2--2-2-|
--------------------------------|--------------------------------|
--2-2-2-2----2-2-2-2-2-2----2-2-|--------------------------------|


                                                              
----------------------------|--------------------------------|
--2-2-2-2-2--2-2-2-------2--|--2-2-2-2-2--2-2-2-2-2-2-2--2-2-|
--------------------2-------|--------------------------------|
----------------------------|--------------------------------|


                                                              
----------------------------|--------------------------------|
--2-2-2-2-2--2-2-2-------2--|----------4--------------4------|
--------------------2-------|--------------------------------|
----------------------------|--2-2-2-2----2-2-2-2-2-2----2-2-|


                                                                  
--------------------------------|--------------------------------|
----------4--------------2------|----------4--------------4------|
--------------------------------|--------------------------------|
--2-2-2-2----2-2-2-2-2-2----2-2-|--2-2-2-2----2-2-2-2-2-2----2-2-|


                                                                         
--------------------------------|--------------------|------------------|
----------4--------------2------|--------------------|------------------|
--------------------------------|--------------------|------------------|
--2-2-2-2----2-2-2-2-2-2----2-2-|--0--0--------------|------------------|


                                                                                
--------------------|------------------|--------------------|------------------|
--------------------|------------------|--------------------|------------------|
--------------------|------------------|--------------------|------------------|
--2--2--------------|------------------|--0--0--------------|------------------|


                                                               
--------------------|--------------------|--------------------|
--------------------|---------------2----|--------------------|
--------------------|------------4-------|--------------------|
--2--2--------------|--------------------|--0--0--------------|


                                                                                
------------------|--------------------|------------------|--------------------|
------------------|--------------------|------------------|--------------------|
------------------|--------------------|------------------|--------------------|
------------------|--2--2--------------|------------------|--0--0--------------|


                                                                                
------------------|--------------------|------------------|--------------------|
------------------|--------------------|------------------|--4--------2--------|
------------------|--------------------|------------------|--------------------|
------------------|--2--2~-------------|------------------|--------------------|


                                                                              
------------------------|--------------------------|-------------------------|
------------------------|--------------------------|-----4--------4----------|
--5------5-5-5------0-0-|--5--4--5--7--5--4--------|-------------------------|
------------------------|--------------------5--4--|--2-----2--2---------2-2-|


                                                                                
--------------------------|-----7--------7----------|--------------------------|
--------------------------|-------------------------|--------------------------|
--------------------------|--5-----5--5---------5-5-|--5--4--5--7--5--4--------|
--2--0--2--4--5--2--4--5--|-------------------------|--------------------5--4--|


                                                                            
-------------------------|--------------------------|----------------------|
-----4--------4------4-4-|--------------------------|----------------------|
-------------------------|--------------------------|--5------5-5-5--------|
--2-----2--2-------------|--2--0--2--4--5--2--4--5--|----------------------|


                                                                               
--------------------------|------------------------|--------------------------|
--------------------------|-------------4----------|--------------------------|
--5--4--5--7--5--4--------|------------------------|--------------------------|
--------------------5--4--|--2----2--2---------2-2-|--2--0--2--4--5--2--4--5--|


                                                    
------------------------|--------------------------|
------------------------|--------------------------|
--5------5-5-5------5-5-|--5--4--5--7--5--4--------|
------------------------|--------------------5--4--|


                                                                              
--------------------------------------|--------------------------------------|
--------------------------------------|--------------------------------------|
--------------------------------------|--3--3--3--3--3--3--2--3--2--0--------|
--0--0--0--0--0--0--0--0--0--0--2--3--|--------------------------------3--2--|


                                                                              
--------------------------------------|--------------------------------------|
--------------------------------------|--------------------------------------|
--------------------------------------|--3--3--3--3--3--3--2--3--2--0--------|
--0--0--0--0--0--0--0--0--0--0--2--3--|--------------------------------3--2--|


                                                                              
--------------------------------------|--------------------------------------|
--------------------------------------|--------------------------------------|
--------------------------------------|--5--5--5--5--5--5--4--5--4--2--------|





Comments


Popular Helloween tabs & chords
A Tale That Wasnt Right 1 Bass Tabs
Falling Higher Bass Tabs
Savage Bass Tabs
The Game Is On Bass Tabs
A Tale That Wasnt Right Chords
Future World Drum Tabs
I Want Out Drum Tabs
Future World 3 Tabs
Helloween Tabs
Save Us Tabs


Song lyrics



↑ Back to top | Tablatures and chords are parodies/interpretations of the original songs. You may use it for private study, scholarship, research or language learning purposes only
© 2014 AZChords.com Contact us | Privacy policy | DMCA | Add/correct tabs | Request tabs | Top 50 tabs