>
 >
Grapowskis Malmsuite 1001

Grapowskis Malmsuite 1001 Bass Tabs

Helloween - Grapowskis Malmsuite 1001 chords, tabs, tablatures, lyrics

Guitar lessons | Add/correct | Request | Top 50 tabs Artists:  A B C D E F G H I J K L M N O P Q R S T U V W X Y Z 0-9

Grapowskis Malmsuite 1001 Bass Tabs – Helloween

CD, Sheet music, Poster

Do you like Grapowskis Malmsuite 1001? Share with your friends now
Bass TabsBass Tabs v2
G||------------------|------------------|-------------------9~---|
D||------------------|------------------|-----------5--5-7-------|
A||------------------|------------------|-------5----------------|
E||------------------|------------------|--0---------------------|


                                                
------------------|--7-------------------------|
------------------|-----9--9--7------7---------|
------------------|--------------10-----10--7--|
------------------|----------------------------|


                                                                         
---------------------------------|-------------------|------------------|
---------------------------------|-------------------|------------------|
---7-7-7-7-7-7-7-7-7-7-7-7-7-7-7-|-------------------|------------------|
---------------------------------|--0----------------|------------------|


                                                                            
------------------|------------------|------------------|------------------|
------------------|------------------|------------------|------------------|
------------------|------------------|------------------|------------------|
------------------|------------------|------------------|------------------|


                                                               
------------------|---------------------|---------------------|
------------------|---------------------|---------------------|
------------------|---------------------|---------------------|
------------------|--5----7----8--------|--5----7----8--------|


                                                            
---------------7------------|------------------------------|
--7--9--10--7-----10--9--7--|------7--9------10--9--7------|
----------------------------|--10--------10------------10--|
----------------------------|------------------------------|


                                                      
----------------------------|------------------------|
---------7-----9--7---------|-----10--9--6--7--------|
--9--10-----9--------10--9--|--7---------------------|
----------------------------|------------------------|


                                                            
---------------7------------|------------------------------|
--7--9--10--7-----10--9--7--|------7--9------10--9--7------|
----------------------------|--10--------10------------10--|
----------------------------|------------------------------|


                                                                            
----------------------------|------------------------|---------------------|
---------7-----9--7---------|-----10--9--6--7--------|---------------------|
--9--10-----9--------10--9--|--7---------------------|---------------------|
----------------------------|------------------------|--5----7----8--------|


                                                   
---------------------|---------------7------------|
---------------------|--7--9--10--7-----10--9--7--|
---------------------|----------------------------|
--5----7----8--------|----------------------------|


                                                            
------------------------------|----------------------------|
------7--9------10--9--7------|---------7-----9--7---------|
--10--------10------------10--|--9--10-----9--------10--9--|
------------------------------|----------------------------|


                                                      
------------------------|---------------7------------|
-----10--9--6--7--------|--7--9--10--7-----10--9--7--|
--7---------------------|----------------------------|
------------------------|----------------------------|


                                                            
------------------------------|----------------------------|
------7--9------10--9--7------|---------7-----9--7---------|
--10--------10------------10--|--9--10-----9--------10--9--|
------------------------------|----------------------------|


                                                            
------------------------|----------------------------------|
-----10--9--6--7--------|----------------------------------|
--7---------------------|----------------------------------|
------------------------|--5-5-5-5-4-4-4-4-7-7-7-7-5-5-5-5-|


                                                                      
----------------------------------|----------------------------------|
----------------------------------|----------------------------------|
----------------------------------|----------------------------------|
--8-8-8-8-7-7-7-7-5-5-5-5-4-4-4-4-|--5-5-5-5-4-4-4-4-7-7-7-7-5-5-5-5-|


                                                       
----------------------------------|-------------------|
----------------------------------|-------------------|
----------------------------------|-------------------|
--8-8-8-8-7-7-7-7-5-5-5-5-4-4-4-4-|--0----------------|


                                                                      
----------------------------------|----------------------------------|
--4-4-4-4-------------------------|----------------------------------|
----------5-5-5-5-7-7-7-7-3-3-3-3-|--5-5-5-5-2-2-2-2-3-3-3-3---------|
----------------------------------|--------------------------5-5-5-5-|


                                                                      
----------------------------------|----------------------------------|
----------------------------------|--4-4-4-4-------------------------|
--2-2-2-2-------------------------|----------5-5-5-5-7-7-7-7-3-3-3-3-|
----------4-4-4-4-5-5-5-5-5-5-5-5-|----------------------------------|


                                                               
----------------------------------|---------------------------|
----------------------------------|---------------------------|
--5-5-5-5-2-2-2-2-3-3-3-3---------|--2-2-2-2------------------|
--------------------------5-5-5-5-|----------4-4-4-4-5--------|


                                                                 
----------5---5-7/-14-----|------------------|------------------|
--7~---5----7-------------|------------------|------------------|
--------------------------|------------------|------------------|
--------------------------|------------------|------------------|


                                                                             
------------------|-------------------|------------------|------------------|
------------------|-------------------|------------------|------------------|
------------------|--0----------------|------------------|------------------|
------------------|-------------------|------------------|------------------|


                                                                            
------------------|------------------|------------------|------------------|
------------------|------------------|------------------|------------------|
------------------|------------------|------------------|------------------|
------------------|------------------|------------------|------------------|


                                                                            
------------------|------------------|------------------|------------------|
------------------|------------------|------------------|------------------|
------------------|------------------|------------------|------------------|
------------------|------------------|------------------|------------------|


                                                                            
------------------|------------------|------------------|------------------|
------------------|------------------|------------------|------------------|
------------------|------------------|------------------|------------------|
------------------|------------------|------------------|------------------|


                                                                            
------------------|------------------|------------------|------------------|
------------------|------------------|------------------|------------------|
------------------|------------------|------------------|------------------|
------------------|------------------|------------------|------------------|


                                                                            
------------------|------------------|------------------|------------------|
------------------|------------------|------------------|------------------|
------------------|------------------|------------------|------------------|
------------------|------------------|------------------|------------------|


                                                                            
------------------|------------------|------------------|------------------|
------------------|------------------|------------------|------------------|
------------------|------------------|------------------|------------------|
------------------|------------------|------------------|------------------|


                                                                            
------------------|------------------|------------------|------------------|
------------------|------------------|------------------|------------------|
------------------|------------------|------------------|------------------|
------------------|------------------|------------------|------------------|


                                                                            
------------------|------------------|------------------|------------------|
------------------|------------------|------------------|------------------|
------------------|------------------|------------------|------------------|
------------------|------------------|------------------|------------------|


                                                                    
------------------|------------------|--------------|--------------|
------------------|------------------|--------------|--------------|
------------------|------------------|--------------|--------------|
------------------|------------------|--------------|--------------|


                                                                           
--------------|--------------|--------------|--------------|--------------|
--------------|--------------|--------------|--------------|--------------|
--------------|--------------|--------------|--------------|--------------|
--------------|--------------|--------------|--------------|--------------|


                                                                           
--------------|--------------|--------------|--------------|--------------|
--------------|--------------|--------------|--------------|--------------|
--------------|--------------|--------------|--------------|--------------|
--------------|--------------|--------------|--------------|--------------|


                                                                           
--------------|--------------|--------------|--------------|--------------|
--------------|--------------|--------------|--------------|--------------|
--------------|--------------|--------------|--------------|--------------|
--------------|--------------|--------------|--------------|--------------|


                                                                    
--------------|--------------|------------------|------------------|
--------------|--------------|------------------|------------------|
--------------|--------------|------------------|------------------|
--------------|--------------|------------------|------------------|


                                                                         
------------------|------------------|----7-6-7---7-6-7---7-6-7---7-6-7-|
------------------|------------------|--4---------------4---------------|
------------------|------------------|----------5---------------5-------|
------------------|------------------|----------------------------------|


                                                                              
----9-8-9-6-9-8-9---9-8-9-6-9-8-9-|----11-9-11-7-11-9-11---11-9-11-7-11-9-11-|
--6---------------6---------------|--7-------------------7-------------------|
----------------------------------|------------------------------------------|
----------------------------------|------------------------------------------|


                                                                              
----12-11-9---------12-11-9---------------|----7-6-7---7-6-7---7-6-7---7-6-7-|
--9---------12-11-9---------12-11-9-11-9--|--4---------------4---------------|
------------------------------------------|----------5---------------5-------|
------------------------------------------|----------------------------------|


                                                                              
----9-8-9-6-9-8-9---9-8-9-6-9-8-9-|----11-9-11-7-11-9-11---11-9-11-7-11-9-11-|
--6---------------6---------------|--7-------------------7-------------------|
----------------------------------|------------------------------------------|
----------------------------------|------------------------------------------|


                                                                              
----12-11-9---------12-11-9---------------|----7-6-7---7-6-7---7-6-7---7-6-7-|
--9---------12-11-9---------12-11-9-11-9--|--4---------------4---------------|
------------------------------------------|----------5---------------5-------|
------------------------------------------|----------------------------------|


                                                                              
----9-8-9-6-9-8-9---9-8-9-6-9-8-9-|----11-9-11-7-11-9-11---11-9-11-7-11-9-11-|
--6---------------6---------------|--7-------------------7-------------------|
----------------------------------|------------------------------------------|
----------------------------------|------------------------------------------|


                                                                              
----12-11-9---------12-11-9---------------|----------------------------------|
--9---------12-11-9---------12-11-9-11-9--|--9-9-9-9-9-9-9-9-9-9-9-9-9-9-9-9-|
------------------------------------------|----------------------------------|
------------------------------------------|----------------------------------|


                                                   
--------------------------------------------------|
--11-11-11-11-11-11-11-11-11-11-11-11-11-11-11-11-|
--------------------------------------------------|
--------------------------------------------------|


                                                   
--------------------------------------------------|
--12-12-12-12-12-12-12-12-12-12-12-12-12-12-12-12-|
--------------------------------------------------|
--------------------------------------------------|


                                                                      
--9-9-9-9-9-9-9-9-9-9-9-9-9-9-9-9-|----------------------------------|
----------------------------------|--9-9-9-9-9-9-9-9-9-9-9-9-9-9-9-9-|
----------------------------------|----------------------------------|
----------------------------------|----------------------------------|


                                                   
--------------------------------------------------|
--11-11-11-11-11-11-11-11-11-11-11-11-11-11-11-11-|
--------------------------------------------------|
--------------------------------------------------|


                                                   
--------------------------------------------------|
--12-12-12-12-12-12-12-12-12-12-12-12-12-12-12-12-|
--------------------------------------------------|
--------------------------------------------------|


                                                                      
--9-9-9-9-9-9-9-9-9-9-9-9-9-9-9-9-|----------------------------------|
----------------------------------|----------------------------------|
----------------------------------|----------------------------------|
----------------------------------|--7-7-7-7-7-7-7-7-7-7-7-7-7-7-7-7-|


                                                                      
----------------------------------|----------------------------------|
----------------------------------|----------------------------------|
--4-4-4-4-4-4-4-4-4-4-4-4-4-4-4-4-|--5-5-5-5-5-5-5-5-5-5-5-5-5-5-5-5-|
----------------------------------|----------------------------------|


                                                                      
----------------------------------|----------------------------------|
----------------------------------|----------------------------------|
--7-7-7-7-7-7-7-7-7-7-7-7-7-7-7-7-|----------------------------------|
----------------------------------|--7-7-7-7-7-7-7-7-7-7-7-7-7-7-7-7-|


                                                                      
----------------------------------|----------------------------------|
----------------------------------|----------------------------------|
--4-4-4-4-4-4-4-4-4-4-4-4-4-4-4-4-|--5-5-5-5-5-5-5-5-5-5-5-5-5-5-5-5-|
----------------------------------|----------------------------------|


                                                                      
----------------------------------|----------------------------------|
----------------------------------|----------------------------------|
--7-7-7-7-7-7-7-7-7-7-7-7-7-7-7-7-|----------------------------------|
----------------------------------|--7-7-7-7-7-7-7-7-7-7-7-7-7-7-7-7-|


                                                                      
----------------------------------|----------------------------------|
----------------------------------|----------------------------------|
--4-4-4-4-4-4-4-4-4-4-4-4-4-4-4-4-|--5-5-5-5-5-5-5-5-5-5-5-5-5-5-5-5-|
----------------------------------|----------------------------------|


                                                                      
----------------------------------|----------------------------------|
----------------------------------|----------------------------------|
--7-7-7-7-7-7-7-7-7-7-7-7-7-7-7-7-|----------------------------------|
----------------------------------|--7-7-7-7-7-7-7-7-7-7-7-7-7-7-7-7-|


                                                                      
----------------------------------|----------------------------------|
----------------------------------|----------------------------------|
--4-4-4-4-4-4-4-4-4-4-4-4-4-4-4-4-|--5-5-5-5-5-5-5-5-5-5-5-5-5-5-5-5-|
----------------------------------|----------------------------------|


                                                                      
----------------------------------|----------------------------------|
----------------------------------|----------------------------------|
--7-7-7-7-7-7-7-7-7-7-7-7-7-7-7-7-|----------------------------------|
----------------------------------|--7-7-7-7-7-7-7-7-7-7-7-7-7-7-7-7-|


                                                                      
----------------------------------|----------------------------------|
----------------------------------|----------------------------------|
--4-4-4-4-4-4-4-4-4-4-4-4-4-4-4-4-|--5-5-5-5-5-5-5-5-5-5-5-5-5-5-5-5-|
----------------------------------|----------------------------------|


                                                                      
----------------------------------|----------------------------------|
----------------------------------|----------------------------------|
--7-7-7-7-7-7-7-7-7-7-7-7-7-7-7-7-|----------------------------------|
----------------------------------|--7-7-7-7-7-7-7-7-7-7-7-7-7-7-7-7-|


                                                                      
----------------------------------|----------------------------------|
----------------------------------|----------------------------------|
--4-4-4-4-4-4-4-4-4-4-4-4-4-4-4-4-|--5-5-5-5-5-5-5-5-5-5-5-5-5-5-5-5-|
----------------------------------|----------------------------------|


                                                           
----------------------------------|-----------------------|
----------------------------------|----------9-------9----|
--7-7-7-7-7-7-7-7-7-7-7-7-7-7-7-7-|------9--------9-------|
----------------------------------|--7--------------------|


                                                                        
-----------------------|-----------------------|-----------------------|
--11-------------------|----------9-------9----|--11-------------------|
-------11--------------|------9--------9-------|-------11--------------|
------------9----------|--7--------------------|------------9----------|


                                                                        
-----------------------|-----------------------|-----------------------|
----------9-------9----|--11-------------------|----------9-------9----|
------9--------9-------|-------11--------------|------9--------9-------|
--7--------------------|------------9----------|--7--------------------|


                                                                           
-----------------------|--------------------------------------------------|
--11-------------------|--------------------------------------------------|
-------11--------------|--------------------------------------------------|
------------9----------|--7-7-7-7-7-7-7-7-7-7-7-7-7-7-7-7-7-7-7-7-7-7-7-7-|


                                                         
------------7-9/-16~--16-16-16-16-16-|------------------|
--7---7---9--------------------------|------------------|
-------------------------------------|------------------|
-------------------------------------|------------------|


                                              
--11h14h11-----------------------------------|
------------12-9-----------------------------|
-----------------12--------------------------|
---------------------7-7-7-7-7-7-7-7-7-7-7-7-|


                                                   
--------------------------------------------------|
--------------------------------------------------|
--------------------------------------------------|
--7-7-7-7-7-7-7-7-7-7-7-7-7-7-7-7-7-7-7-7-7-7-7-7-|


                                                                         
--------------------------------------------------|---------------------|
--------------------------------------------------|---------------------|
--------------------------------------------------|---------------------|
--7-7-7-7-7-7-7-7-7-7-7-7-7-7-7-7-7-7-7-7-7-7-7-7-|--7----7----7--------|


                                            
-------------------|------------------|---||
-------------------|------------------|---||
-------------------|------------------|---||
--7----------------|------------------|---||





Comments


Popular Helloween tabs & chords
Anything My Mama Don't Like Bass Tabs
Halloween 2 Bass Tabs
A Tale That Wasnt Right Chords
Follow The Sign Tabs
Follow The Sign 1 Tabs
Future World 2 Tabs
I Can 1 Tabs
In The Middle Of A Heartbeat (Live) Tabs
Perfect Gentleman Tabs
Lay All Your Love On Me Ukulele


Song lyrics



↑ Back to top | Tablatures and chords are parodies/interpretations of the original songs. You may use it for private study, scholarship, research or language learning purposes only
© 2014 AZChords.com Contact us | Privacy policy | DMCA | Add/correct tabs | Request tabs | Top 50 tabs