>
 >
Forever And One

Forever And One Bass Tabs

Helloween - Forever And One chords, tabs, tablatures, lyrics

Guitar lessons | Add/correct | Request | Top 50 tabs Artists:  A B C D E F G H I J K L M N O P Q R S T U V W X Y Z 0-9

Forever And One Bass Tabs – Helloween

CD, Sheet music, Poster

Do you like Forever And One? Share with your friends now
Bass TabsBass Tabs v2ChordsTabsUkulele
tune down

F#||------|------|------|------|------|------|------|------|------|------|
C#||------|------|------|------|------|------|------|------|------|------|
G#||------|------|------|------|------|------|------|------|------|------|
D#||------|------|------|------|------|------|------|------|------|------|


                                                                         
------|------|------|------|------|-------------------|-----------------|
------|------|------|------|------|-------------5--7--|-----------------|
------|------|------|------|------|-------5--7--------|-----------------|
------|------|------|------|------|----7--------------|--5--------0--3--|


                                                                        
------------------|-----------------|----------------|-----------------|
------------------|-----------------|----------------|-----------------|
------------3--5--|--------------5--|--7------6------|--5--------------|
--5------5--------|--0--------7-----|----------------|-----------5--8--|


                                                                            
------------------|----------------|---------------------|-----------------|
------------------|---------7------|--10--9--7--6--7--9--|--------------0--|
--5------5--7--8--|--7-------------|---------------------|--0--------3-----|
------------------|----------------|---------------------|-----------------|


                                                                        
------------------|-----------------|-----------------|----------------|
--2---------0--2--|--3--------------|-----------------|----------------|
---------2--------|-----------0--2--|--3--------0-----|---------8------|
------------------|-----------------|--------------3--|--1-------------|


                                                                              
-----------------|---------10--9--7--|---------------------|-----------------|
-----------------|-------------------|--10--9--7--6--------|--------------0--|
--5----5----5----|--7----------------|---------------8--7--|--0--------3-----|
-----------------|-------------------|---------------------|-----------------|


                                                                        
------------------|----------------|-------------------|---------------|
--2---------------|----------------|-------------------|---------------|
------------5--7--|--8----------0--|--3----3--3--0-----|---------------|
---------7--------|----------------|----------------3--|--1------------|


                                                                      
---------------|-------------------|-----------------|---------------|
---------------|----------7--5-----|--5--------------|---------------|
---------------|----------------7--|-----------5--2--|---------------|
--0------------|--5----5-----------|-----------------|--3------------|


                                                                          
-----------------|------------------|-----------------|------------------|
-----------------|------------------|-----------------|------------9-----|
-----------------|------------3--5--|--------------5--|--7------7-----7--|
--5--------0--3--|--5------5--------|--0--------7-----|------------------|


                                                                            
-----------------|-----------------|-------------------|-------------------|
-----------------|-----------------|-------------------|-------------------|
--5--------------|--5------5----5--|-------------------|-------------------|
-----------5--8--|-----------------|--5--5--5--5----0--|----0--0--3--0--3--|


                                                                        
-----------------|------------------|-----------------|----------------|
-----------------|------------------|-----------------|----------------|
-----------------|------------3--5--|--------------5--|--7------6------|
--5--------0--3--|--5------5--------|--0--------7-----|----------------|


                                                                            
-----------------|------------------|----------------|---------------------|
-----------------|------------------|---------7------|--10--9--7--6--------|
--5--------------|--5------5--7--8--|--7-------------|---------------8--7--|
-----------5--8--|------------------|----------------|---------------------|


                                                                           
-----------------|------------------|-----------------|-------------------|
--------------0--|--2---------0--2--|--3--------------|-------------------|
--0--------3-----|---------2--------|-----------0--2--|--3----3--2--0-----|
-----------------|------------------|-----------------|----------------3--|


                                                          
----------------|------------------|--------------10--9--|
----------------|------------------|-----6--7--9---------|
---------8------|--5----5-------5--|--7------------------|
--1-------------|------------8-----|---------------------|


                                                                              
--7-------------------|-----------------|------------------|-----------------|
-----10--9--7---------|--------------0--|--2---------------|-----------------|
---------------10--7--|--0--------3-----|------------5--7--|--8--------0--2--|
----------------------|-----------------|---------7--------|-----------------|


                                                                              
-------------------|------------------|-----------------|--------------------|
-------------------|------------------|-----------------|-----------7h-5--7--|
--3----3--2--0-----|------------------|-----------------|--------------------|
----------------3--|--1------1--3--1--|--0----0--0------|--5--5--5-----------|


                                                                       
-----------------|---------------|-----------------|------------------|
-----------------|--5------------|-----------------|------------------|
-----------2--5--|---------------|-----------------|------------3--5--|
--3--------------|---------------|--5--------0--3--|--5------5--------|


                                                                          
-----------------|------------------|-----------------|------------------|
-----------------|------------9-----|-----------------|------------------|
--------------5--|--7------7-----7--|--5--------------|--5------5-----5--|
--0--------7-----|------------------|-----------5--8--|------------8-----|


                                                                           
-----9--7-----------|----------------|-----------------|------------------|
-----------10--7----|--6-------------|--------------0--|------------------|
--7-----------------|---------x------|--0--------3-----|------------5--7--|
--------------------|----------------|-----------------|--0------7--------|


                                                                          
-----------------|-------------------|----------------|------------------|
-----------------|-------------------|---------3------|------------------|
--8--------0--2--|--3----3--2--0-----|----------------|--5----5-------5--|
-----------------|----------------3--|--1-------------|------------8-----|


                                                                          
--------------10--9--|-----------------|----------------|----------------|
-----6--7--9---------|-----------------|----------------|----------------|
--7------------------|-----------------|--5-------------|-------------2--|
---------------------|--8--------7--8--|---------3------|--5-------------|


                                                                         
------------------|----------------|----------------|-------------------|
------------------|---------3------|--0-------------|--2----2--2--2--2--|
--3----2----0-----|----------------|---------2------|-------------------|
---------------3--|--1-------------|----------------|-------------------|


                                                                
--------------------|----------10--9--7--|---------------------|
--2-----------------|--------------------|--10--9--7--6--------|
--------------------|--7----7------------|---------------8--7--|
-----0--0--0--0--7--|--------------------|---------------------|


                                                                           
-----------------|------------------|-----------------|-------------------|
--------------0--|--2---------0--2--|--3--------------|-------------------|
--0--------3-----|---------2--------|-----------0--2--|--3----3--2--0-----|
-----------------|------------------|-----------------|----------------3--|


                                                                           
---------------|--------------|-----------10--9--7--|---------------------|
---------------|--------------|---------------------|--10--9--7--6--------|
---------------|--------------|--7--7--7------------|---------------8--7--|
--1------------|--------------|---------------------|---------------------|


                                                                           
-----------------|------------------|-----------------|-------------------|
--------------0--|--2---------------|-----------------|-------------------|
--0--------3-----|------------5--7--|--8--------0--2--|--3----3--2--0-----|
-----------------|---------7--------|-----------------|----------------3--|


                                                                      
------------------|-----------------|----------------|---------------|
------------------|-----------------|---------7------|--5------------|
------------------|-----------------|----------------|---------------|
--1------1--3--1--|--0----0--0------|--5-------------|---------------|


                                                           
--------9--10h-9-----|--9----9-----------|--9------------||
-----7------------7--|----------7-----7--|---------------||
--0------------------|-------------0-----|---------------||
---------------------|-------------------|---------------||





Comments


Popular Helloween tabs & chords
A Little Time Bass Tabs
Eagle Fly Free Bass Tabs
Rise And Fall 2 Bass Tabs
The Time Of The Oath Bass Tabs
I Want Out Drum Tabs
A Little Time Tabs
Halloween Tabs
Ime Tabs
Madness Of The Crowds Tabs
Pink Bubbles Go Ape Tabs


Song lyrics



↑ Back to top | Tablatures and chords are parodies/interpretations of the original songs. You may use it for private study, scholarship, research or language learning purposes only
© 2014 AZChords.com Contact us | Privacy policy | DMCA | Add/correct tabs | Request tabs | Top 50 tabs