» » »

Electric Eye Bass tabs (ver.1)

Artists:  A B C D E F G H I J K L M N O P Q R S T U V W X Y Z # 

Electric Eye Bass tabs (ver.1)

Helloween
Rating:
0/5 (0 votes)

Hard to play? Try these video lessons and learn fast.
                G||-------------------|-------------------|-------------------|
D||-------------------|-------------------|-------------------|
A||--7----------------|--7----------------|--5----------------|
E||-------------------|-------------------|-------------------|


                                                             
--------------------|-------------------|-------------------|
--------------------|-------------------|-------------------|
--3------5----------|--7----------------|--7----------------|
--------------------|-------------------|-------------------|


                                                             
-------------------|--------------------|-------------------|
-------------------|--------------------|-------------------|
--5----------------|--3------5----------|--7----------------|
-------------------|--------------------|-------------------|


                                                             
-------------------|-------------------|--------------------|
-------------------|-------------------|--------------------|
--7----------------|--5----------------|--3------5----------|
-------------------|-------------------|--------------------|


                                                            
-------------------|-------------------|-------------------|
-------------------|-------------------|-------------------|
--7----------------|--7----------------|--5----------------|
-------------------|-------------------|-------------------|


                                                             
--------------------|-------------------|-------------------|
--------------------|-------------------|-------------------|
--3------5----------|-------------------|-------------------|
--------------------|--0----------------|-----------------0-|


                                                              
-------------------|--------------------|--------------------|
-------------------|--------------------|--------------------|
-------------------|--------------------|---------3----------|
-----------------5-|---------------7--0-|------------------5-|


                                                          
-----------------------|---------------------------------|
-----------------------|---------------------------------|
---------------------7-|---7-7-7-7-7-7-7-7-7-7-7-7-7-7-7-|
---------7---7--7-7----|---------------------------------|


                                                                    
---------------------------------|---------------------------------|
---------------------------------|---------------------------------|
---7-7-7-7-7-7-7-7-7-7-7-7-7-7-7-|---7-7-7-7-7-7-7-7-7-7-7-7-7-7-7-|
---------------------------------|---------------------------------|


                                                                      
---------------------------------||----------------------------------|
---------------------------------||*---------------------------------|
---7-7-7-7-7-7-7-7-7-7-7-7-7-7---||*---------------------------------|
-------------------------------5-||----5-5-5-5-5-5-5-5-5-5-5-5-5-5-5-|


                                                                    
---------------------------------|---------------------------------|
---------------------------------|---------------------------------|
---------------------------------|---------------------------------|
---5-5-5-5-5-5-5-5-5-5-5-5-5-5-5-|---5-5-5-5-5-5-5-5-5-5-5-5-5-5-5-|


                                                                    
---------------------------------|---------------------------------|
---------------------------------|---------------------------------|
-------------------------------7-|---7-7-7-7-7-7-7-7-7-7-7-7-7-7-7-|
---5-5-5-5-5-5-5-5-5-5-5-5-5-5---|---------------------------------|


                                                                    
---------------------------------|---------------------------------|
---------------------------------|---------------------------------|
---7-7-7-7-7-7-7-7-7-7-7-7-7-7-7-|---7-7-7-7-7-7-7-7-7-7-7-7-7-7-7-|
---------------------------------|---------------------------------|


                                                                    
---------------------------------|---------------------------------|
---------------------------------|---------------------------------|
---7-7-7-7-7-7-7-7-7-7-7-7-7-7---|---------------------------------|
-------------------------------8-|---8-8-8-8-8-8-8-8-8-8-8-8-8-8-5-|


                                                                    
---------------------------------|---------------------------------|
---------------------------------|---------------------------------|
-------------------------------5-|---5-5-5-5-5-5-5-5-5-5-5-5-5-5---|
---5-5-5-5-5-5-5-5-5-5-5-5-5-5---|-------------------------------7-|


                                                              
--------------------------|----------------------------------|
--------------------------|----------------------------------|
--------------------------|----------------------------------|
---7-7-7-7-7-7-7-7--------|--0-0-0-0-0-0-0-0-0-0-0-0-0-0-0-0-|


                                                                      
----------------------------------|----------------------------------|
----------------------------------|----------------------------------|
----------------------------------|----------------------------------|
--0-0-0-0-0-0-0-0-0-0-0-0-0-0-0-0-|--0-0-0-0-0-0-0-0-0-0-0-0-0-0-0-0-|


                                                                          
-----------------------------------||------------------------------------|
----------------------------------*||------------------------------------|
----------------------------------*||------------------2---------------7-|
--0-0-0-0-0-0-0-0-0-0-0-0-0-0-0-5--||--0-0-0-0-0-0-0-0-------------------|


                                                                     
---------------------------------|----------------------------------|
---------------------------------|----------------------------------|
---7-7-7-7-7-7-7-7-7-7-7-7-7-7---|----------------7-7-7-7-7-7-7-7-7-|
-------------------------------8-|--8-8-8-3-3-3-3-------------------|


                                                                      
----------------------------------|----------------------------------|
----------------------------------|----------------------------------|
--7-7-7-7-7-7-7-7-7-7-7-7-7-7-7---|----------------7-7-7-7-7-7-7-7---|
--------------------------------8-|--8-8-8-3-3-3-3-----------------7-|


                                                                      
----------------------------------|----------------------------------|
----------------------------------|----------------------------------|
----------------------------------|----------------------------------|
--7-7-7-7-7-7-7-7-7-7-7-7-7-7-7-3-|--3-3-3-5-5-5-5-7-7-7-7-7-7-7-7-7-|


                                                                      
----------------------------------|----------------------------------|
----------------------------------|----------------------------------|
----------------------------------|----------------------------------|
--7-7-7-7-7-7-7-7-7-7-7-7-7-7-7-3-|--3-3-3-5-5-5-5-7-7-7-7-7-7-7-7-7-|


                                                                      
----------------------------------|----------------------------------|
----------------------------------|----------------------------------|
----------------------------------|----------------------------------|
--8-8-8-8-8-8-8-8-8-8-8-8-8-8-8-8-|--5-5-5-5-5-5-5-5-5-5-5-5-5-5-5-5-|


                                                                     
----------------------------------|---------------------------------|
----------------------------------|---------------------------------|
----------------------------------|----------------5--5-5-5-5-5-5-7-|
--8-8-8-8-8-8-8-8-8-8-8-8-8-8-8-8-|--7-7-7-7-7-7-7------------------|


                                                              
-------------------|--------------------|--------------------|
-------------------|--------------------|--------------------|
-------------------|--------------------|---------3----------|
-----------------5-|---------------7--0-|------------------5-|


                                                          
----------------------|----------------------------------|
----------------------|----------------------------------|
----------------------|----------------------------------|
---------7---7--7-7---|--5-5-5-5-5-5-5-5-5-5-5-5-5-5-5-5-|


                                                                      
----------------------------------|----------------------------------|
----------------------------------|----------------------------------|
----------------------------------|----------------------------------|
--5-5-5-5-5-5-5-5-5-5-5-5-5-5-5-5-|--5-5-5-5-5-5-5-5-5-5-5-5-5-5-5-5-|


                                                                      
----------------------------------|----------------------------------|
----------------------------------|----------------------------------|
----------------------------------|----------------------------------|
--5-5-5-5-5-5-5-5-5-5-5-5-5-5-5-5-|--5-5-5-5-5-5-5-5-5-5-5-5-5-5-5-5-|


                                                                      
----------------------------------|----------------------------------|
----------------------------------|----------------------------------|
----------------------------------|----------------------------------|
--5-5-5-5-5-5-5-5-5-5-5-5-5-5-5-5-|--5-5-5-5-5-5-5-5-5-5-5-5-5-5-5-5-|


                                                                      
----------------------------------|----------------------------------|
----------------------------------|----------------------------------|
----------------------------------|----------------------------------|
--5-5-5-5-5-5-5-5-5-5-5-5-5-5-5-5-|--7-7-7-7-7-7-7-7-7-7-7-7-7-7-7-7-|


                                                                      
----------------------------------|----------------------------------|
----------------------------------|----------------------------------|
----------------------------------|----------------------------------|
--7-7-7-7-7-7-7-7-2-2-2-2-2-2-2-2-|--7-7-7-7-7-7-7-7-7-7-7-7-7-7-7-7-|


                                                                      
----------------------------------|----------------------------------|
----------------------------------|----------------------------------|
----------------------------------|----------------------------------|
--7-7-7-7-7-7-7-7-2-2-2-2-2-2-2-8-|--8-8-8-8-8-8-8-8-8-8-8-8-8-8-8-5-|


                                                                      
----------------------------------|----------------------------------|
----------------------------------|----------------------------------|
--------------------------------5-|--5-5-5-5-5-5-5-5-5-5-5-5-5-5-5---|
--5-5-5-5-5-5-5-5-5-5-5-5-5-5-5---|--------------------------------7-|


                                                                
--------------------------||-----------------------------------|
--------------------------||*----------------------------------|
--------------------------||*----------------------------------|
---7-7-7-7-7-7-7-7--------||---0-0-0-0-0-0-0-0-0-0-0-0-0-0-0-0-|


                                                                      
----------------------------------|----------------------------------|
----------------------------------|----------------------------------|
----------------------------------|----------------------------------|
--0-0-0-0-0-0-0-0-0-0-0-0-0-0-0-0-|--0-0-0-0-0-0-0-0-0-0-0-0-0-0-0-0-|


                                                                        
-----------------------------------||----------------------------------|
----------------------------------*||----------------------------------|
----------------------------------*||----------------------------------|
--0-0-0-0-0-0-0-0-0-0-0-0-0-0-0-0--||--0-0-0-0-0-0-0-0-0-0-0-0-0-0-0-0-|


                                                                            
-----------------------|------------|-------------------|------------------|
-----5-----------------|------------|-------------------|------------------|
---------5-------------|----5-------|-------------------|------------------|
--0------------3---0---|--------5---|--0----------------|------------------|


                    
------------------||
------------------||
------------------||
------------------||Electric Eye
            
Hard to play? Try these video lessons and learn fast. | Correct




comments powered by Disqus
↑ Back to top | Tablatures and chords are parodies/interpretations of the original songs. You may use it for private study, scholarship, research or language learning purposes only