» » »

Helloween, A Tale That Wasn Right Bass tabs (ver.1)

Artists:  A B C D E F G H I J K L M N O P Q R S T U V W X Y Z # 

A Tale That Wasn Right Bass tabs (ver.1)

Helloween Tabs
 Rating:
4/5 (4 votes)
A Tale That Wasn	 Right lessons Tabs too difficult? Try these video lessons and learn fast
1
                || Band: Helloween                           ||
||                                           ||
||                                           ||
|| Date: 1st November 2003                   ||
||                                           ||
|| Note: For any suggestions don't hesitate  ||
||                                           ||
||                                           ||
||-------------------------------------------||
||-------------------------------------------||
||                                           ||
|| Normal Tuning                             ||
||                                           ||
|| G D A E                                   ||
||                                           ||
||-------------------------------------------||
-----------------------------------------------

Very nice song and easy to play!

Riff 1
G|----------------------------------------------------|
D|->---->----------->---->------------>--->-->---->---|
A|-0--0-0-->---->---0--0-0-->---->--3\5-5-5--0--0-0---|
E|---------0--0-0-----------1--1-1--------------------|

G|----------------------|
D|----------------------|
A|-->---->--->--.-------|
E|--0--0-0---5--5-------|

Chorus
G|-------------------------------------------|
D|-------------------------------------------|
A|------------------------3--1---3-1-0-------|
E|-1-3-5-55--1-5-3-33--1---------------3-----|

G|---------------------------------|
D|---------------------------------|
A|---------------------------0-----|
E|-1-3-5-55--1-5-3-33--1--0--------|

During solo bass plays
G|--------------------------------------------------------|
D|--------------------------------------------------------|
A|-------------------------------------5-55--7-77--5-7----|
E|-------------1-11--3-33--0-00--1-11------------------5--|

==                          TABLATURE EXPLANATION                          ==
----------                            ----------
----5h8--- Hammeron                   ----(8)--- Ghost Note
----------                            ----------
----5p8--- Pulloff                    ---8-[8]-- Tie
----------                            ----------
----5/8--- Slide Up                   -----x---- Dead Note
----------                            ----------
----5\8--- Slide Down                 ----------
----------                            ||------|| Repeat Start & End
----5~~~-- Vibrato                    ||*----*||
----------                            ||*----*||
----------                            ||------||


"When a man lies, he murders 
   some part of the world.
  These are the pale deaths
 which men miscall their lives.
     All this I cannot 
  bear to witness any longer
    Cannot the kingdom of
   salvation take me home?"

      - Cliff Burton
            
Submit corrections

comments powered by Disqus
↑ Back to top | Helloween Bass for A Tale That Wasn Right. Lyrics for acoustic guitar and electric guitar. 1 Tablatures and chords are parodies/interpretations of the original songs. You may use it for private study, scholarship, research or language learning purposes only