>
 >
A Million To One

A Million To One Guitar Tabs

Helloween - A Million To One chords, tabs, tablatures, lyrics

Guitar lessons | Add/correct | Request | Top 50 tabs Artists:  A B C D E F G H I J K L M N O P Q R S T U V W X Y Z 0-9

A Million To One Guitar Tabs – Helloween

CD, Sheet music, Poster

Do you like A Million To One? Share with your friends now
Bass TabsTabs


HI  FOLKS THE GOOD GUITARIST WHO HAS TABED THIS SONG 
WRONG ARE REALY BAD TO TABB I KNOW THAT THE MOST OF THIS 
IS RIGHT AND HELLO I ARE ONLY 16 AND HAWE PLAYD FOR ONE 
AND A HALF YEAR AND THIS SONG IS NOT SO DIFUQULT

------------------------------------------------------------------------------
------------------------------------------------------------------------------
------------------------------------------------------------------------------
-6---6-4-2--------6---6-4--4-6-6-6--------------------------------------------
-4-6-4-2-2-4-4-4--4-6-4-2--2-4-4-4--------------------------------------------
---4-------2-2-2----4---------------------------------------------------------
 GITAR 1: 3 X                                                                 

----------------------15-17-15-------------------------15---------------------
-15----15-17-15-17-18----------18-17-15----15-17----17----18-17-15------------
----14----------------------------------14-------17---------------------------
------------------------------------------------------------------------------
------------------------------------------------------------------------------
------------------------------------------------------------------------------
 GITAR 2: 2 LAST TIMES    (INTRO)                                             

------------------------------------------------------------------------------
------------------------------------------------------------------------------
------------------------------------------------------------------------------
------------------6-6-6-6-6-6-6-6---------------------------------------------
-2-2-2-2-2-2-2-2--4-4-4-4-4-4-4-4---------------------------------------------
-0-0-0-0-0-0-0-0--------------------------------------------------------------
 3 TIMES   GITAR 1 & 2                                                        

------------------------------------------------------------------------------
------------------------------------------------------------------------------
------------------------------------------------------------------------------
-6-4------------6--6-4--------------------------------------------------------
-4-2-7--6-4--6--4--4-2-7--6-4--6-6-6-6-6-6-6-6-7-7-7-7-7-7-7-7--6--4--2--2----
-----5--4-2--4---------5--4-2--4-4-4-4-4-4-4-4-5-5-5-5-5-5-5-5--4--2--0--0----
 VERSE 1X   GITAR 1 & 2                                                       

------------------------------------------------------------------------------
------------------------------------------------------------------------------
------------------------------------------------------------------------------
-6---6-4-2--------6---6-4--4-6-6-6--------------------------------------------
-4-6-4-2-2-4-4-4--4-6-4-2--2-4-4-4--------------------------------------------
---4-------2-2-2----4---------------------------------------------------------
 REFRENG   2X      GITAR 1 & 2                                                

------------------------------------------------------------------------------
------------------------------------------------------------------------------
------------------------------------------------------------------------------
------------------6-6-6-6-6-6-6-6---------------------------------------------
-2-2-2-2-2-2-2-2--4-4-4-4-4-4-4-4---------------------------------------------
-0-0-0-0-0-0-0-0--------------------------------------------------------------
 2 TIMES GITAR 1 & 2                                                          

------------------------------------------------------------------------------
------------------------------------------------------------------------------
------------------------------------------------------------------------------
-6-4------------6--6-4--------------------------------------------------------
-4-2-7--6-4--6--4--4-2-7--6-4--6-6-6-6-6-6-6-6-7-7-7-7-7-7-7-7--6--4--2--2----
-----5--4-2--4---------5--4-2--4-4-4-4-4-4-4-4-5-5-5-5-5-5-5-5--4--2--0--0----
 VERSE 2 1X                                                                   

------------------------------------------------------------------------------
------------------------------------------------------------------------------
------------------------------------------------------------------------------
-6---6-4----------6---6-4--4-6-6-6--------------------------------------------
-4-6-4-2-2-4-4-4--4-6-4-2--2-4-4-4--------------------------------------------
---4-----0-2-2-2----4---------------------------------------------------------
 REFRENG 2X                                                                   

------------------------------------------------------------------------------
------------------------------------------------------------------------------
------------------------------------------------------------------------------
-6---6-8---6---6-4---6---6-8---6---6------------------------------------------
-4-6-4-6---4-6-4-2---4-6-4-6---4-6-4-2-2-2-2-2-2-2-4-4-4-4-4-4-4--------------
---4---------4---------4---------4---0-0-0-0-0-0-0-2-2-2-2-2-2-2--------------
 MELLOM SPILL  1 X                                                            

------------------------------------------------------------------------------
-5-5--5--7-7--7------------------5-5--5--7-7--7-------------------------------
-----------------4-4--4--6-6--6-----------------------------------------------
------------------------------------------------------------------------------
------------------------------------------------------------------------------
------------------------------------------------------------------------------
 RIFF 1 1X                                                                    

------------------------------------------------------------------------------
------------------------------------------------------------------------------
-----6-----6-----6-----6------------------------------------------------------
-7-7---6-6--------------------------------------------------------------------
-------------9-9---7-7--------------------------------------------------------
------------------------------------------------------------------------------
 RIFF 2 1X                                                                    

------------------------------------------------------------------------------
-5-5--5--7-7--7-----------------5-5--5--7-7--7--------------------------------
----------------4-4--4--6-6--6------------------------------------------------
------------------------------------------------------------------------------
------------------------------------------------------------------------------
------------------------------------------------------------------------------
 RIFF 1 1X                                                                    

------------------------------------------------------------------------------
------------------------------------------------------------------------------
-----6-----6-----6------------------------------------------------------------
-7-7---6-6--------------------------------------------------------------------
-------------9-9---7-7--7-----------------------------------------------------
------------------------------------------------------------------------------
 RIFF 2 1X                                                                    

------------------------------------------------------------------------------
------------------------------------------------------------------------------
------------------------------------------------------------------------------
-8-8-8-8-8-8-8-8-8-8-8-8-8-8-8-8-8-8-8-8-8-8-8-8-8-8-8-8-8-8-8-8-8-8-8-8------
-6-6-6-6-6-6-6-6-6-6-6-6-6-6-6-6-6-6-6-6-6-6-6-6-6-6-6-6-6-6-6-6-6-6-6-6------
------------------------------------------------------------------------------
                                                                              

------------------------------------------------------------------------------
------------------------------------------------------------------------------
------------------------------------------------------------------------------
-----------------6-6-6-6-6-6-6-6-6-6-6-6-6-6-6-6------------------------------
-4-4-4-4-4-4-4-4-6-6-6-6-6-6-6-6-6-6-6-6-6-6-6-6------------------------------
-2-2-2-2-2-2-2-2--------------------------------------------------------------
 MELLOM SPILL 2 1X                                                            

------------------------------------------------------------------------------
-5-5--5--7-7--7------------------5-5--5--7-7--7-------------------------------
-----------------4-4--4--6-6--6-----------------------------------------------
------------------------------------------------------------------------------
------------------------------------------------------------------------------
------------------------------------------------------------------------------
 RIFF 1 1X                                                                    

------------------------------------------------------------------------------
------------------------------------------------------------------------------
-----6-----6-----6-----6------------------------------------------------------
-7-7---6-6--------------------------------------------------------------------
-------------9-9---7-7--------------------------------------------------------
------------------------------------------------------------------------------
 RIFF 2 2X                                                                    

------------------------------------------------------------------------------
------------------------------------------------------------------------------
-----6-----6-----6------------------------------------------------------------
-7-7---6-6---------7-7-7------------------------------------------------------
-------------9-9--------------------------------------------------------------
------------------------------------------------------------------------------
 RIFF 3 1X                                                                    

------------------------------------------------------------------------------
------------------------------------------------------------------------------
------------------------------------------------------------------------------
-6-----6--6-6-4-4--6-----6--6-6-4-4-6--6-6-/-4-4-----------6-6/4-4------------
-4-2-7-4--4-4-2-2--4-2-7-4--4-4-2-2-4--4-4-/-2-2--2-2/4-4--4-4/2-2--0-0/4-4---
---0-5---------------0-5--------------------------0-0/2-2-----------0-0/2-2---
 MELLOM SPILL 3 1X                                                            

------------------------------------------------------------------------------
------------------------------------------------------------------------------
------------------------------------------------------------------------------
-8---8-6----------8---8-6--6-8-8-8--------------------------------------------
-6-8-6-4-4-6-6-6--6-8-6-4--4-6-6-6--------------------------------------------
---6-----2-4-4-4----6---------------------------------------------------------
 VERSE 4X GITAR 1                                                             

----------------------15-17-15-------------------------15---------------------
-15----15-17-15-17-18----------18-17-15----15-17----17----18-17-15------------
----14----------------------------------14-------17---------------------------
------------------------------------------------------------------------------
------------------------------------------------------------------------------
------------------------------------------------------------------------------
 GITAR 2  2 LAST TIME                                                         





Comments


Popular Helloween tabs & chords
Before The War 3 Bass Tabs
Save Us 2 Bass Tabs
Steel Tormentor Bass Tabs
Hold Me In Your Arms Chords
In The Night Chords
Halloween Tabs
Heavy Metal Is The Law Tabs
Keeper Of The Seven Keys Part Tabs
The Tune Tabs
Forever And One Ukulele


Song lyrics



↑ Back to top | Tablatures and chords are parodies/interpretations of the original songs. You may use it for private study, scholarship, research or language learning purposes only
© 2014 AZChords.com Contact us | Privacy policy | DMCA | Add/correct tabs | Request tabs | Top 50 tabs