» » »

Hello Saferide, Nothing Like You Tabs (ver.1)

Artists:  A B C D E F G H I J K L M N O P Q R S T U V W X Y Z # 

Nothing Like You Tabs (ver.1)

Hello Saferide Tabs
 Rating:
4/5 (4 votes)
Nothing Like You lessons Tabs too difficult? Try these video lessons and learn fast
1
                   Am    C     G     D
e|-------------------------|
B|---1-----1-----0-----3---|
G|---2-----0-----0-----2---| x2
D|-------------------0-----|
A|-0---2-3---2-----2-----2-|
E|-------------3-----------|

   Am    C     G     D
e|-------------------------|
B|---1-----1-----0-----3---|
G|---2-----0-----0-----2-2-|
D|-------------------0-----| 
A|-0---2-3---2-----2-------|
E|-------------3-----------|

   D     Am    G     D 
e|-------------------------|
B|---3-----1-----0-----2---|
G|---2-----2-----0-----3-2-|
D|-0-----------------0-----|
A|-----2-0---------2-------|
E|-----------2-3-----------|

   D     D     D
e|-------------------|
B|---2-----2---------|
G|---3-2---3---------|
D|-0-----0---0-0-----|
A|---------------3-2-|
E|-------------------|

Denhär ackordsföljden fortsätter hela låten igenom förutom i sticket:

   Am    G     Am    G 
e|-------------------------|
B|---2-----0-----2-----0---|
G|---3-----0-----3-----0---| x5
D|-------------------------|
A|-0-----------0-----------|
E|-----2-3---4-----2-3---4-|

Vers:

Am C        G           D
I  swear: I felt it again
    Am       C       G               D
the tingling  of the first night again
Am        C             G            D         
Us moving slowly, Merle Haggard, the fading sun
D               Am           G               D
  Well, there’s nothing like you when you’re gone

I wear your sweatshirt again
The one with the cast of Falcon Crest on
The one I forbade you to use time and again
Well it’s sad, I keep putting it on

Stick:

  Am                G           Am      G
A friend stopped by and said as quoted:
Am             G                Am       G
  “I can’t believe that we’re here again
  Have you forgotten the women, the drinking, the Blues of the Eighties collection
Oh my God, you’re wearing your Lorenzo Lamas again”
M-hm

Vers:

Yes, I am lonesome again!
Yes, I am crying again!
Yes, you are getting this letter again
Because there’s nothing like you when you’re gone

Never as tender and never as well dressed
never as handsome and never as good in bed
never had such good taste
never as much like me
Well, there’s nothing like you when you’re gone

--------------------------------------------------------------------------
 Ingrid
            
Submit corrections

comments powered by Disqus
↑ Back to top | Hello Saferide Tabs for Nothing Like You. Lyrics for acoustic guitar and electric guitar. 1 Tablatures and chords are parodies/interpretations of the original songs. You may use it for private study, scholarship, research or language learning purposes only