» » »

Hello Saferide, Long Lost Penpal Tabs (ver.1)

Artists:  A B C D E F G H I J K L M N O P Q R S T U V W X Y Z # 

Long Lost Penpal Tabs (ver.1)

Hello Saferide Tabs
 Rating:
4.2/5 (5 votes)
Long Lost Penpal lessons Tabs too difficult? Try these video lessons and learn fast
                I play the chorus a little differently than she does in the song, but the chords are 
and the rest is pretty close to the way she does it.

She also repeats the F7 and G before moving on to the C/G7 in some verses.  Just listen 
the song and follow the words.

Verses:

 C                        Am
e)------------------------------------------------|
B)1/0--0/1----1/0--0/1----1/0--0/1----1/0--0/1----|
G)------------------------------------------------|
D)---2-----2-----2------2-----2-----2----2-----2--|
A)3----3------3----3------0----0------0----0------|
E)------------------------------------------------|


 F7           G           C           G7
e)----------------------------------------1-------|
B)1/0--0/1----1/0--0/1----1/0--0/1----0------0-0--|
G)---2------2----0-----0-----2------2---0-----0---|
D)3----3------------------------------------------|
A)------------------------0----0------------------|
E)------------3----3------------------3-----------|


Chorus:

 F        G       C   C/B Am  Am/G F
e)---1---1-----------------------------------------|
B)--1---1----0---0---1---1---1---1---1---1---1---1-|
G)-2---2----0---0---0---0---2---2---2---2---2---2--|
D)3---3----0---0---2---2---2---2---3---3---3---3---|
A)----------------3---2---0------------------------|
E)--------3---3---------------3---1---1---1---1----|

 G                C   C/B Am  Am/G F              G
e)-----------------------------------------------------------|
B)---0---0---0---0---1---1---1---1---1---1---1---1---1/0-----|
G)--0---0---0---0---0---0---2---2---2---2---2---2---0--------|
D)-0---0---0---0---2---2---2---2---3---3---3---3---0---------|
A)----------------3---2---0----------------------------------|
E)3---3---3---3---------------3---1---1---1---1---3----------|

Song ends in a C chord after the second chorus.
            
Submit corrections

comments powered by Disqus
↑ Back to top | Hello Saferide Tabs for Long Lost Penpal. Lyrics for acoustic guitar and electric guitar. Tablatures and chords are parodies/interpretations of the original songs. You may use it for private study, scholarship, research or language learning purposes only