>
 >
2008

2008 Chords

Hello Saferide - 2008 chords, tabs, tablatures, lyrics

Guitar lessons | Add/correct | Request | Top 50 tabs Artists:  A B C D E F G H I J K L M N O P Q R S T U V W X Y Z 0-9

2008 Chords – Hello Saferide

CD, Sheet music, Poster

Do you like 2008? Share with your friends now
ChordsUkulele
-------------------------------------------------------------------------------
                             2008 – Hello Saferide
-------------------------------------------------------------------------------
Not sure that this is the right chords but it sounds ok when I play it.
Please see reference to chords at the bottom of the page

Verse:

I                          II                 III              IV
There is a war in all the heads and there's a war in mine as well
           V                    IV                 I
And if I could explain it any better, I'm sure I would
I                         II             III         IV
We're in a bus and it's night, you opened up and so will I
                 V                    IV                    I
But though I'm good with words, I've never been good with words

Chorus (1):
G           C    D                   G        Em
But all I know is there's something new this year
        C                        D         G
All I know is there's something new real near

Verse:
I                           II            III                 IV
There is a town that I live in and it's a town that favors winners
            V           IV                    I
And when I win I think about when I'll next lose
I                             II
I took a train that took me north
             III                       IV               V
And it's the place where trees speak louder than the people
          IV                              I
But if I have to pick that's what I'll choose
I                        VI        VII               IV
I walked along the river Ume, it chilled me out of my bones too
          V                IV                 I
But a cold wind is always better than a cold voice
I                              II            III             IV
I am not strong enough for win city, so I'll stay in to play Sin
        V             IV                              I
Witty people without hearts have always had a lead on me

Chorus (2):
But all I know is there's something new this year
All I know is there's something new real near
All I know is there's something new this year
I don't know much, but there's something new coming near

Vers:
I                                 II            III                   IV
I'll walk into the shop where you work, it is a shop that kills you slowly
                 V               IV                                  I
There'll be no blood but another shirt on a hanger will still behead you
I                                   VI             VII                IV
I'll lift your arm and you'll lift mine, and in a Communist state of mind
           V                      IV                         I
We're not worth more than anyone else but surely not worth less

Chorus (2):


Accords to verse (except line “I walked along the rivere Ume…” and line “I lift your arm…”

     I     II   III   IV     V     IV    I
e|---3-----3-----3-----3-----3-----3-----3--------------------------------------|
B|---3-----3-----3-----3-----3-----3-----3--------------------------------------|
G|---0-----0-----0-----2-----0-----2-----0--------------------------------------|
D|---0-----0-----2-----0-----2-----0-----0--------------------------------------|
A|---2-----0-----------------3-----------2--------------------------------------|
E|---3-----2-----------------------------3--------------------------------------|


Accords to verse (only for line “I walked along the rivere Ume…” and line “I lift your arm…”

     I     VI   VII    IV    V     IV    I
e|---3-----3-----3-----3-----3-----3-----3--------------------------------------|
B|---3-----3-----3-----3-----3-----3-----3--------------------------------------|
G|---0-----0-----0-----2-----0-----2-----0--------------------------------------|
D|---0-----0-----0-----0-----2-----0-----0--------------------------------------|
A|---2-----0-----2-----------3-----------2--------------------------------------|
E|---3-----x-----------------------------3--------------------------------------|





Comments


Popular Hello Saferide tabs & chords
2006 Chords
Get Sick Soon Chords
Lund Chords
Valentine's Day Chords
X Telling Me About The Loss Of Something Dear At Age 16 Chords
2008 Ukulele
I Dont Sleep Well Ukulele
My Best Friend Ukulele
Valentines Day Ukulele
X Telling Me About The Loss Of Something Dear At Age 16 Ukulele


Song lyrics



↑ Back to top | Tablatures and chords are parodies/interpretations of the original songs. You may use it for private study, scholarship, research or language learning purposes only
© 2014 AZChords.com Contact us | Privacy policy | DMCA | Add/correct tabs | Request tabs | Top 50 tabs