>
 >
I Wont Back Down

I Wont Back Down Guitar Tabs

Hello Kelly - I Wont Back Down chords, tabs, tablatures, lyrics

Guitar lessons | Add/correct | Request | Top 50 tabs Artists:  A B C D E F G H I J K L M N O P Q R S T U V W X Y Z 0-9

I Wont Back Down Guitar Tabs – Hello Kelly

CD, Sheet music, Poster

Do you like I Wont Back Down? Share with your friends now
Tabs
And if you have any request for Hello Kelly songs you want me to tab let me know and I 
be happy to tab them!

Also I didn't tab much of the lead guitar but I may someday.

h- Hammer On
p- Pull Off

Intro
E:------------------------------------------------------------------------|
B:------------------------------------------------------------------------|
G:------------------------------------------------------------------------|
D:-2-2-6-2--2-2-6-2--2-2-6-2--2-2-7--2-2-6-2--2-2-6-2--2-2-6-2--x-x--x-7--|
A:-2-2-6-2--2-2-6-2--2-2-6-2--2-2-7--2-2-6-2--2-2-6-2--2-2-6-2--x-x--x-7--|
E:-0-0-4-0--0-0-4-0--0-0-4-0--0-0-5--0-0-4-0--0-0-4-0--0-0-4-0--x-x--x-5--|

Verse 1 ~~0:12
|---------------------------------------------|
|---------------------------------------------|
|-6-6--4-4------------6-6--4-4-------x-x------|
|-6-6--4-4--2-2--2-2--6-6--4-4--2-2--x-x-2-2--|
|-4-4--2-2--2-2--2-2--4-4--2-2--2-2--x-x-2-2--|
|-----------0-0--0-0------------0-0------0-0--|

|-------------------------------|
|-------------------------------|
|-6-6--4-4--2-2--2-2--6-6--4-4--|
|-6-6--4-4--2-2--2-2--6-6--4-4--|
|-4-4--2-2--0-0--0-0--4-4--2-2--|
|-------------------------------|

Intro ~~:29
|--------------------------------------|
|--------------------------------------|
|--------------------------------------|
|-2-2-6-2--2-2-6-2--2-2-6-2--x-x--x-7--|
|-2-2-6-2--2-2-6-2--2-2-6-2--x-x--x-7--|
|-0-0-4-0--0-0-4-0--0-0-4-0--x-x--x-5--|

Verse 2 ~~:32
|---------------------------------------------|
|---------------------------------------------|
|-6-6--4-4------------6-6--4-4-------x-x------|
|-6-6--4-4--2-2--2-2--6-6--4-4--2-2--x-x-2-2--|
|-4-4--2-2--2-2--2-2--4-4--2-2--2-2--x-x-2-2--|
|-----------0-0--0-0------------0-0------0-0--|

|-----------------------------------------------------|
|-----------------------------------------------------|
|-6-6--4-4------2-4--6-6--4-4------1-----1--6-6--4-4--|
|-6-6--4-4----2------6-6--4-4--2-2---2-2----6-6--4-4--|
|-4-4--2-2--0--------4-4--2-2--2-2---2-2----4-4--2-2--|
|------------------------------0-0---0-0--------------|

Cool Solo Thing ~~:55
|--------------------|
|---8-9---8-9-8h9p8--|
|-9-----9------------|
|--------------------|
|--------------------|
|--------------------|

Chorus ~~:57
|----------------------------------------------------------------------|
|----------------------------------------------------------------------|
|-----------------------------------------------------4-4-4-4-5-5-5-5--|
|--7-7-7-7-7-7-7-7--2-2-2-2-2-2-2-2--7-7-7-7-7-7-7-7--4-4-4-4-5-5-5-5--|
|--7-7-7-7-7-7-7-7--2-2-2-2-2-2-2-2--7-7-7-7-7-7-7-7--2-2-2-2-3-3-3-3--|
|--5-5-5-5-5-5-5-5--0-0-0-0-0-0-0-0--5-5-5-5-5-5-5-5-------------------|

|----------------------------------------------------------|
|----------------------------------------------------------|
|------------------------------------6-6--2-2-----6-6--4-4-|
|--7-7-7-7-7-7-7-7--2-2-2-2-2-2-2-2--6-6--2-2--2--6-6--4-4-|
|--7-7-7-7-7-7-7-7--2-2-2-2-2-2-2-2--4-4--4-4--2--4-4--2-2-|
|--5-5-5-5-5-5-5-5--0-0-0-0-0-0-0-0------------0-----------|

Intro ~~1:18
|-------------------------------------|
|-------------------------------------|
|----------------------------------4--|
|-2-2-6-2--2-2-6-2--2-2-6-2---7--6---4|
|-2-2-6-2--2-2-6-2--2-2-6-2---7-------|
|-0-0-4-0--0-0-4-0--0-0-4-0---5-------|

|--------------------------------------|
|--------------------------------------|
|--------------------------------------|
|-2-2-6-2--2-2-6-2--2-2-6-2--x-x--x-7--|
|-2-2-6-2--2-2-6-2--2-2-6-2--x-x--x-7--|
|-0-0-4-0--0-0-4-0--0-0-4-0--x-x--x-5--|

Verse 3 ~~1:29
|-------------------------------------------------------------|
|-------------------------------------------------------------|
|-6-6-6-6-6-6--4-4------------6-6-6-6-6-6--4-4----------------|
|-6-6-6-6-6-6--4-4--2-2--2-2--6-6-6-6-6-6--4-4--2-2--x-x-2-2--|
|-4-4-4-4-4-4--2-2--2-2--2-2--4-4-4-4-4-4--2-2--2-2--x-x-2-2--|
|-------------------0-0--0-0--------------------0-0--x-x-0-0--|


|---------------------------------------|
|---------------------------------------|
|-6-6-6-6-6-6--4-4----------------------|
|-6-6-6-6-6-6--4-4--6-6--6-7--6-6--6-7--|
|-4-4-4-4-4-4--2-2--6-6--6-7--6-6--6-7--|
|-------------------4-4--4-5--4-4--4-5--|

|------------------------------------------------|
|------------------------------------------------|
|-6-6--4-4--2-2--2-2--6-6--4-4--9-9-9-9-9-9-9-9--|
|-6-6--4-4--2-2--2-2--6-6--4-4--x-x-x-x-x-x-x-x--|
|-4-4--2-2--0-0--0-0--4-4--2-2--7-7-7-7-7-7-7-7--|
|------------------------------------------------|

Chorus ~~1:53
|---------------------------------------------------------------------|
|---------------------------------------------------------------------|
|----------------------------------------------------4-4-4-4-5-5-5-5--|
|-7-7-7-7-7-7-7-7--2-2-2-2-2-2-2-2--7-7-7-7-7-7-7-7--4-4-4-4-5-5-5-5--|
|-7-7-7-7-7-7-7-7--2-2-2-2-2-2-2-2--7-7-7-7-7-7-7-7--2-2-2-2-3-3-3-3--|
|-5-5-5-5-5-5-5-5--0-0-0-0-0-0-0-0--5-5-5-5-5-5-5-5-------------------|

|----------------------------------------------------------------------|
|----------------------------------------------------------------------|
|-----------------------------------6-6--2-2-----6-6-x-x-x-x---4-4--9--|
|-7-7-7-7-7-7-7-7--2-2-2-2-2-2-2-2--6-6--2-2--2--6-6-x-x-x-x---4-4-----|
|-7-7-7-7-7-7-7-7--2-2-2-2-2-2-2-2--4-4--4-4--2--4-4-x-x-x-x---2-2-----|
|-5-5-5-5-5-5-5-5--0-0-0-0-0-0-0-0------------0------------------------|

Interlude ~~2:34

|------------------------------------------------------------------|
|------------------------------------------------------------------|
|-2-2-2-2-2-2-2-2-4-4-4-4-4-4-4-4-6-6-6-6-6-6-6-6-9-9-9-9-4-4-4-4--|
|-2-2-2-2-2-2-2-2-4-4-4-4-4-4-4-4-6-6-6-6-6-6-6-6-9-9-9-9-4-4-4-4--|
|-0-0-0-0-0-0-0-0-2-2-2-2-2-2-2-2-4-4-4-4-4-4-4-4-7-7-7-7-2-2-2-2--|
|------------------------------------------------------------------|

Final Chorus ~~2:44
|---------------------------------------------------------------------|
|---------------------------------------------------------------------|
|----------------------------------------------------4-4-4-4-5-5-5-5--|
|-7-7-7-7-7-7-7-7--2-2-2-2-2-2-2-2--7-7-7-7-7-7-7-7--4-4-4-4-5-5-5-5--|
|-7-7-7-7-7-7-7-7--2-2-2-2-2-2-2-2--7-7-7-7-7-7-7-7--2-2-2-2-3-3-3-3--|
|-5-5-5-5-5-5-5-5--0-0-0-0-0-0-0-0--5-5-5-5-5-5-5-5-------------------|

|-------------------------------------------------|
|-------------------------------------------------|
|-----------------------------------6-6--2-2-x-x--|
|-7-7-7-7-7-7-7-7--2-2-2-2-2-2-2-2--6-6--2-2-x-x--|
|-7-7-7-7-7-7-7-7--2-2-2-2-2-2-2-2--4-4--4-4-x-x--|
|-5-5-5-5-5-5-5-5--0-0-0-0-0-0-0-0----------------|

|------------------------------------------------------------------|
|------------------------------------------------------------------|
|-2-2-2-2-2-2-2-2-4-4-4-4-4-4-4-4-6-6-6-6-6-6-6-6-9-9-9-9-4-4-4-4--|
|-2-2-2-2-2-2-2-2-4-4-4-4-4-4-4-4-6-6-6-6-6-6-6-6-9-9-9-9-4-4-4-4--|
|-0-0-0-0-0-0-0-0-2-2-2-2-2-2-2-2-4-4-4-4-4-4-4-4-7-7-7-7-2-2-2-2--|
|------------------------------------------------------------------|

|------------------------------------------------------------------|
|------------------------------------------------------------------|
|-2-2-2-2-2-2-2-2-4-4-4-4-4-4-4-4-6-6-6-6-6-6-6-6-9-9-9-9-4-4-4-4--|
|-2-2-2-2-2-2-2-2-4-4-4-4-4-4-4-4-6-6-6-6-6-6-6-6-9-9-9-9-4-4-4-4--|
|-0-0-0-0-0-0-0-0-2-2-2-2-2-2-2-2-4-4-4-4-4-4-4-4-7-7-7-7-2-2-2-2--|
|------------------------------------------------------------------|

Outro ~~3:24
|--------------------------------------------|
|--------------------------------------------|
|--------------------------------------------|
|-2-2-6-2--2-2-6-2--2-2-6-2--x-x--x-7----2~--|
|-2-2-6-2--2-2-6-2--2-2-6-2--x-x--x-7----2~--|
|-0-0-4-0--0-0-4-0--0-0-4-0--x-x--x-5----0~--|

Enjoy It!:)





Comments


Popular Hello Kelly tabs & chords
Eulogy Chords
Its Beginning To Smell Alot Like Christmas Chords
Perfect Place Chords
Perfect Place 1 Chords
Perfect Place Tabs
Eulogy Ukulele
Its Beginning To Smell Alot Like Christmas Ukulele
Perfect Place Ukulele


Song lyrics



↑ Back to top | Tablatures and chords are parodies/interpretations of the original songs. You may use it for private study, scholarship, research or language learning purposes only
© 2014 AZChords.com Contact us | Privacy policy | DMCA | Add/correct tabs | Request tabs | Top 50 tabs