» » »

EldsjäL Tabs (ver.2)

Artists:  A B C D E F G H I J K L M N O P Q R S T U V W X Y Z # 

EldsjäL Tabs (ver.2)

Hel
Rating:
0/5 (0 votes)

Hard to play? Try these video lessons and learn fast.
                HEL - ELDSJÄL

Tabbad av Stefan Nilsson 2010-04-04

p.m = palm muting

Fig_1:
    Dm    A     A#      C     Dm    A     A#       C          Dm
E |-------------------------|------------------------------||-----|
B |-------------------------|------------------------------||-----|
G |-------2-----3-----------|-------2-----3----------------||-----|
D |-----3-----------3-2-----|-----3------------3-2-2-----2-||-----|
A |-5-------------------3---|-5------------------------3---||-5~--|
E |-------------------------|------------------------------||-----|


Fig_2:
E |-----------------|
B |-----------------|
G |-7-------5---7---|
D |-7---8---5---7---|
A |-5---8---3---5---|
E |-----6-----------|


Fig_3:
    Dm      Dm      A#          C
E |---------------------------------|
B |---------------------------------|
G |-2---------------3---3-----------|
D |-----3-2-----2-3---------3-3-2---|
A |---------5-----------------------|
E |---------------------------------|
p.m     . .     . .         . .

    Dm      Dm      A#          C          Dm
E |-------------------------------------||-----|
B |-------------------------------------||-----|
G |-2---------------3---3---------------||-----|
D |-----3-2-----2-3---------3-3-2-----2-||-----|
A |---------5-----------------------3---||-5~--|
E |-------------------------------------||-----|
p.m     . .     . .         . .


Fig_4:
E |---------------|
B |---------------|
G |-7-----5---3---|
D |-7-----5---3---|
A |-5-----3---1---|
E |---------------|


Fig_5:
E |-----------------|    |-----------------|
B |-----------------|    |-----------------|
G |-----2---3-2-----|    |---------3-2-----|
D |---3---3-----5-3-| x2 |---2-5-2-----5-3-| x2
A |-5---------------|    |-3---------------|
E |-----------------|    |-----------------|
p.m . . . . . . . .        . . . . . . . .


Fig_6:
E |---------------------------------|
B |---------------------------------|
G |-7---------------5-------7-------|
D |-7-------8-------5-------7-------|
A |-5---5-5-8-------3---3-3-5---5-5-|
E |---------6---6-6-----------------|
p.m     . .     . .     . .     . .


Det bör vara självklart var riffen spelas i låten,
men här kommer en liten förklaring:

Fig_1 är intro, mellanspel och outro.
Fig_2 är refrängen (har bara angivit ackorden,
feeling får ni stå för själva).
Fig_3, Fig_4 och Fig_5 är brygga eller vad man ska kalla det...
Fig_6 är den alternativa refrängen mot sl*tet.
            
Hard to play? Try these video lessons and learn fast. | Correct




comments powered by Disqus
↑ Back to top | Tablatures and chords are parodies/interpretations of the original songs. You may use it for private study, scholarship, research or language learning purposes only