» » »

He Is We, Radio Chords (ver.2)

Artists:  A B C D E F G H I J K L M N O P Q R S T U V W X Y Z # 

Radio Chords (ver.2)

He Is We Tabs
 Rating:
4/5 (9 votes)
Radio lessons Tabs too difficult? Try these video lessons and learn fast
                This is my guitar chords for the song "radio" by He is We.
hope ya like it.

                                     RADIO
                                    He Is We
Intro: 2x

e---------3---3---|
B-2---3---2---0---|
G-2---2---0---0---|
D-0---0---0---2---|
A-3---3---3---3---|
E-x---x---x---x---|

Verse:
e---------3---3---|
B-2---3---2---0---|
G-2---2---0---0---|
D-0---0---0---2---|
A-3---3---3---3---|
E-x---x---x---x---|
He grew up just a little too fast
Lost and needs it's on his past

e---------3---3---|
B-2---3---2---0---|
G-2---2---0---0---|
D-0---0---0---2---|
A-3---3---3---3---|
E-x---x---x---x---|
I can hear him hummin'
Guess he's got rhythm
Cause he hums every time he's blue

Ohhhhhhhh.

Chorus:
e---------3---3---|
B-2---3---2---0---|
G-2---2---0---0---|
D-0---0---0---2---|
A-3---3---3---3---|
E-x---x---x---x---|
Radio,
Bleed me a melody
That will make this boy cry
Radio,
Bleed me a melody
That'll make him wonder why
He was so cold

        1x
e---------3---3---|
B-2---3---2---0---|
G-2---2---0---0---|
D-0---0---0---2---|
A-3---3---3---3---|
E-x---x---x---x---|

Verse:
e---------3---3---|
B-2---3---2---0---|
G-2---2---0---0---|
D-0---0---0---2---|
A-3---3---3---3---|
E-x---x---x---x---|
Broken glass and a pretty face
Silent morn full of hate
Quiet face, silent mind
Screaming for consequence
Bleedin' for more

Repeat Chorus.

Play this part faster.(just listen to the song to match your strumming)
e---------3---3---|
B-2---3---2---0---|
G-2---2---0---0---|
D-0---0---0---2---|
A-3---3---3---3---|
E-x---x---x---x---|
Play him a song that reminds him
Of a time when he wasn't tumbling down, down
Tumbling down

Repeat Chorus.

then on this part, play this chords slowly (listen again to the song :D)
e---------3---3---|
B-2---3---2---0---|
G-2---2---0---0---|
D-0---0---0---2---|
A-3---3---3---3---|
E-x---x---x---x---|
Radio (radio) radio
Bleed me a melody (radio)
Radio (radio)
Bleed me a melody (radio)
That boy�s got rhythm
Cuz he hums everytime (radio)
He�s blue (radio)
Radio (radio)
            
Submit corrections

comments powered by Disqus
↑ Back to top | He Is We Chords for Radio. Lyrics for acoustic guitar and electric guitar. Tablatures and chords are parodies/interpretations of the original songs. You may use it for private study, scholarship, research or language learning purposes only