>
 >
Radio

Radio Guitar Tabs

He Is We - Radio chords, tabs, tablatures, lyrics

Guitar lessons | Add/correct | Request | Top 50 tabs Artists:  A B C D E F G H I J K L M N O P Q R S T U V W X Y Z 0-9

Radio Guitar Tabs – He Is We

CD, Sheet music, Poster

Do you like Radio? Share with your friends now
ChordsChords v2TabsUkulele
Tuning: Standard (eBGDAE)

e|-------0-0-0-0-0-0-0-0-0-0-------3-3-3-3-2-2-2-2-2-2-|
B|-------0-0-0-0-1-1-1-1-1-1-------3-3-3-3-3-3-3-3-3-3-|
G|-------0-0-0-0-0-0-0-0-0-0-------0-0-0-0-2-2-2-2-2-2-|
D|-------2-2-2-2-2-2-2-2-2-2-------0-0-0-0-0-0-0-0-0-0-|
A|-------2-2-2-2-3-3-3-3-3-3-------2-2-2-2-0-0-0-0-0-0-|
E|--0-0--0-0-0-0-0-0-0-0-0-0--3-3--3-3-3-3-0-0-0-0-0-0-|
He grew up just a little too fast,

e|-------0-0-0-0-0-0-0-0-0-0-------3-3-3-3-2-2-2-2-2-2-|
B|-------0-0-0-0-1-1-1-1-1-1-------3-3-3-3-3-3-3-3-3-3-|
G|-------0-0-0-0-0-0-0-0-0-0-------0-0-0-0-2-2-2-2-2-2-|
D|-------2-2-2-2-2-2-2-2-2-2-------0-0-0-0-0-0-0-0-0-0-|
A|-------2-2-2-2-3-3-3-3-3-3-------2-2-2-2-0-0-0-0-0-0-|
E|--0-0--0-0-0-0-0-0-0-0-0-0--3-3--3-3-3-3-0-0-0-0-0-0-|
Lost the need itís all in his past.

e|-------0-0-0-0-0-0-0-0-0-0-------3-3-3-3-2-2-2-2-2-2-|
B|-------0-0-0-0-1-1-1-1-1-1-------3-3-3-3-3-3-3-3-3-3-|
G|-------0-0-0-0-0-0-0-0-0-0-------0-0-0-0-2-2-2-2-2-2-|
D|-------2-2-2-2-2-2-2-2-2-2-------0-0-0-0-0-0-0-0-0-0-|
A|-------2-2-2-2-3-3-3-3-3-3-------2-2-2-2-0-0-0-0-0-0-|
E|--0-0--0-0-0-0-0-0-0-0-0-0--3-3--3-3-3-3-0-0-0-0-0-0-|
I can hear him humming, from the other side of the room.

e|-------0-0-0-0-0-0-0-0-0-0-------3-3-3-3-2-2-2-2-2-2-|
B|-------0-0-0-0-1-1-1-1-1-1-------3-3-3-3-3-3-3-3-3-3-|
G|-------0-0-0-0-0-0-0-0-0-0-------0-0-0-0-2-2-2-2-2-2-|
D|-------2-2-2-2-2-2-2-2-2-2-------0-0-0-0-0-0-0-0-0-0-|
A|-------2-2-2-2-3-3-3-3-3-3-------2-2-2-2-0-0-0-0-0-0-|
E|--0-0--0-0-0-0-0-0-0-0-0-0--3-3--3-3-3-3-0-0-0-0-0-0-|
Guess heís got rhythm, cause he hums everytime heís blue.

|-2~~|
|-3~~|
|-2~~|
|-0~~|
|-0~~|
|-0~~|
Oh.

e|-------0-0-0-0-0-0-0-0-0-0-|
B|-------0-0-0-0-1-1-1-1-1-1-|
G|-------0-0-0-0-0-0-0-0-0-0-|
D|-------2-2-2-2-2-2-2-2-2-2-|
A|-------2-2-2-2-3-3-3-3-3-3-|
E|--0-0--0-0-0-0-0-0-0-0-0-0-|
Radio,

e|-------3-3-3-3-2-2-2-2-2-2-|
B|-------3-3-3-3-3-3-3-3-3-3-|
G|-------0-0-0-0-2-2-2-2-2-2-|
D|-------0-0-0-0-0-0-0-0-0-0-|
A|-------2-2-2-2-0-0-0-0-0-0-|
E|--3-3--3-3-3-3-0-0-0-0-0-0-|
Bleed me a melody.

e|-------0-0-0-0-0-0-0-0-0-0-|
B|-------0-0-0-0-1-1-1-1-1-1-|
G|-------0-0-0-0-0-0-0-0-0-0-|
D|-------2-2-2-2-2-2-2-2-2-2-|
A|-------2-2-2-2-3-3-3-3-3-3-|
E|--0-0--0-0-0-0-0-0-0-0-0-0-|
Thatíll make this boy cry--

e|-------3-3-3-3-2-2-2-2-2-2-|
B|-------3-3-3-3-3-3-3-3-3-3-|
G|-------0-0-0-0-2-2-2-2-2-2-|
D|-------0-0-0-0-0-0-0-0-0-0-|
A|-------2-2-2-2-0-0-0-0-0-0-|
E|--3-3--3-3-3-3-0-0-0-0-0-0-|
--Oh, oh, oh.


e|-------0-0-0-0-0-0-0-0-0-0-|
B|-------0-0-0-0-1-1-1-1-1-1-|
G|-------0-0-0-0-0-0-0-0-0-0-|
D|-------2-2-2-2-2-2-2-2-2-2-|
A|-------2-2-2-2-3-3-3-3-3-3-|
E|--0-0--0-0-0-0-0-0-0-0-0-0-|
Radio,

e|-------3-3-3-3-2-2-2-2-2-2-|
B|-------3-3-3-3-3-3-3-3-3-3-|
G|-------0-0-0-0-2-2-2-2-2-2-|
D|-------0-0-0-0-0-0-0-0-0-0-|
A|-------2-2-2-2-0-0-0-0-0-0-|
E|--3-3--3-3-3-3-0-0-0-0-0-0-|
Bleed me a melody.

e|-------0-0-0-0-0-0-0-0-0-0-|
B|-------0-0-0-0-1-1-1-1-1-1-|
G|-------0-0-0-0-0-0-0-0-0-0-|
D|-------2-2-2-2-2-2-2-2-2-2-|
A|-------2-2-2-2-3-3-3-3-3-3-|
E|--0-0--0-0-0-0-0-0-0-0-0-0-|
Thatíll make him wonder why,

e|-------3-3-3-3-2-2-2-2-2-2-|
B|-------3-3-3-3-3-3-3-3-3-3-|
G|-------0-0-0-0-2-2-2-2-2-2-|
D|-------0-0-0-0-0-0-0-0-0-0-|
A|-------2-2-2-2-0-0-0-0-0-0-|
E|--3-3--3-3-3-3-0-0-0-0-0-0-|
He was so cold.


e|-------0-0-0-0-0-0-0-0-0-0-------3-3-3-3-2-2-2-2-2-2-|
B|-------0-0-0-0-1-1-1-1-1-1-------3-3-3-3-3-3-3-3-3-3-|
G|-------0-0-0-0-0-0-0-0-0-0-------0-0-0-0-2-2-2-2-2-2-|
D|-------2-2-2-2-2-2-2-2-2-2-------0-0-0-0-0-0-0-0-0-0-|
A|-------2-2-2-2-3-3-3-3-3-3-------2-2-2-2-0-0-0-0-0-0-|
E|--0-0--0-0-0-0-0-0-0-0-0-0--3-3--3-3-3-3-0-0-0-0-0-0-|
Broken glass and a pretty face,

e|-------0-0-0-0-0-0-0-0-0-0-------3-3-3-3-2-2-2-2-2-2-|
B|-------0-0-0-0-1-1-1-1-1-1-------3-3-3-3-3-3-3-3-3-3-|
G|-------0-0-0-0-0-0-0-0-0-0-------0-0-0-0-2-2-2-2-2-2-|
D|-------2-2-2-2-2-2-2-2-2-2-------0-0-0-0-0-0-0-0-0-0-|
A|-------2-2-2-2-3-3-3-3-3-3-------2-2-2-2-0-0-0-0-0-0-|
E|--0-0--0-0-0-0-0-0-0-0-0-0--3-3--3-3-3-3-0-0-0-0-0-0-|
Silent mourn full of hate.

e|-0-0-0-0-0-0-0-0-|
B|-0-0-0-0-1-1-1-1-|
D|-0-0-0-0-0-0-0-0-|
G|-2-2-2-2-2-2-2-2-|
A|-2-2-2-2-3-3-3-3-|
E|-0-0-0-0-0-0-0-0-|
Quiet face,

e|-0-0-0-0-0-0-0-0-|
B|-0-0-0-0-1-1-1-1-|
D|-0-0-0-0-0-0-0-0-|
G|-2-2-2-2-2-2-2-2-|
A|-2-2-2-2-3-3-3-3-|
E|-0-0-0-0-0-0-0-0-|
Silent mourn.

e|-0-0-0-0-0-0-0-0-|
B|-0-0-0-0-1-1-1-1-|
D|-0-0-0-0-0-0-0-0-|
G|-2-2-2-2-2-2-2-2-|
A|-2-2-2-2-3-3-3-3-|
E|-0-0-0-0-0-0-0-0-|
Screaming for consequence,

|-3-3-3-3-3-3-3-3-|
|-3-3-3-3-2-2-2-2-|
|-0-0-0-0-3-3-3-3-|
|-0-0-0-0-0-0-0-0-|
|-2-2-2-2-0-0-0-0-|
|-3-3-3-3-0-0-0-0-|
Bleeding for more.



e|-------0-0-0-0-0-0-0-0-0-0-|
B|-------0-0-0-0-1-1-1-1-1-1-|
G|-------0-0-0-0-0-0-0-0-0-0-|
D|-------2-2-2-2-2-2-2-2-2-2-|
A|-------2-2-2-2-3-3-3-3-3-3-|
E|--0-0--0-0-0-0-0-0-0-0-0-0-|
Radio,

e|-------3-3-3-3-2-2-2-2-2-2-|
B|-------3-3-3-3-3-3-3-3-3-3-|
G|-------0-0-0-0-2-2-2-2-2-2-|
D|-------0-0-0-0-0-0-0-0-0-0-|
A|-------2-2-2-2-0-0-0-0-0-0-|
E|--3-3--3-3-3-3-0-0-0-0-0-0-|
Bleed me a melody,

e|-------0-0-0-0-0-0-0-0-0-0-|
B|-------0-0-0-0-1-1-1-1-1-1-|
G|-------0-0-0-0-0-0-0-0-0-0-|
D|-------2-2-2-2-2-2-2-2-2-2-|
A|-------2-2-2-2-3-3-3-3-3-3-|
E|--0-0--0-0-0-0-0-0-0-0-0-0-|
Thatíll make this boy cry--


e|-------3-3-3-3-2-2-2-2-2-2-|
B|-------3-3-3-3-3-3-3-3-3-3-|
G|-------0-0-0-0-2-2-2-2-2-2-|
D|-------0-0-0-0-0-0-0-0-0-0-|
A|-------2-2-2-2-0-0-0-0-0-0-|
E|--3-3--3-3-3-3-0-0-0-0-0-0-|
--Oh, oh, oh.

e|-------0-0-0-0-0-0-0-0-0-0-|
B|-------0-0-0-0-1-1-1-1-1-1-|
G|-------0-0-0-0-0-0-0-0-0-0-|
D|-------2-2-2-2-2-2-2-2-2-2-|
A|-------2-2-2-2-3-3-3-3-3-3-|
E|--0-0--0-0-0-0-0-0-0-0-0-0-|
Radio,


e|-------3-3-3-3-2-2-2-2-2-2-|
B|-------3-3-3-3-3-3-3-3-3-3-|
G|-------0-0-0-0-2-2-2-2-2-2-|
D|-------0-0-0-0-0-0-0-0-0-0-|
A|-------2-2-2-2-0-0-0-0-0-0-|
E|--3-3--3-3-3-3-0-0-0-0-0-0-|
Bleed me a melody.

e|-------0-0-0-0-0-0-0-0-0-0-|
B|-------0-0-0-0-1-1-1-1-1-1-|
G|-------0-0-0-0-0-0-0-0-0-0-|
D|-------2-2-2-2-2-2-2-2-2-2-|
A|-------2-2-2-2-3-3-3-3-3-3-|
E|--0-0--0-0-0-0-0-0-0-0-0-0-|
Thatíll make him wonder why,

e|-------3-3-3-3-2~~|
B|-------3-3-3-3-3~~|
G|-------0-0-0-0-2~~|
D|-------0-0-0-0-0~~|
A|-------2-2-2-2-0~~|
E|--3-3--3-3-3-3-0~~|
He was so cold.


e|-----------------------------------------|
B|-----0---0-----1---1-----3---3-----3---3-|
G|---0---0-----0---0-----0---0-----2---2---|
D|-----------------------------------------|
A|-2---------3-----------------------------|
E|---------------------3---------2---------|
Play him a song,

e|-----------------------------------------|
B|-----0---0-----1---1-----3---3-----3---3-|
G|---0---0-----0---0-----0---0-----2---2---|
D|-----------------------------------------|
A|-2---------3-----------------------------|
E|---------------------3---------2---------|
That reminds him of a time.

e|-----------------------------------------|
B|-----0---0-----1---1-----3---3-----3---3-|
G|---0---0-----0---0-----0---0-----2---2---|
D|-----------------------------------------|
A|-2---------3-----------------------------|
E|---------------------3---------2---------|
When he wasnít tumbling, down, down.

e|-------------------------3-3-3-3--2~~|
B|-----0---0-----1---1-----3-3-3-3--3~~|
G|---0---0-----0---0-------0-0-0-0--2~~|
D|-------------------------0-0-0-0--0~~|
A|-2---------3----------------------0~~|
E|---------------------3------------0~~|
Tumbling down.


e|-------0-0-0-0-0-0-0-0-0-0-|
B|-------0-0-0-0-1-1-1-1-1-1-|
G|-------0-0-0-0-0-0-0-0-0-0-|
D|-------2-2-2-2-2-2-2-2-2-2-|
A|-------2-2-2-2-3-3-3-3-3-3-|
E|--0-0--0-0-0-0-0-0-0-0-0-0-|
Radio,

e|-------3-3-3-3-2-2-2-2-2-2-|
B|-------3-3-3-3-3-3-3-3-3-3-|
G|-------0-0-0-0-2-2-2-2-2-2-|
D|-------0-0-0-0-0-0-0-0-0-0-|
A|-------2-2-2-2-0-0-0-0-0-0-|
E|--3-3--3-3-3-3-0-0-0-0-0-0-|
Bleed me a melody.

e|-------0-0-0-0-0-0-0-0-0-0-|
B|-------0-0-0-0-1-1-1-1-1-1-|
G|-------0-0-0-0-0-0-0-0-0-0-|
D|-------2-2-2-2-2-2-2-2-2-2-|
A|-------2-2-2-2-3-3-3-3-3-3-|
E|--0-0--0-0-0-0-0-0-0-0-0-0-|
Thatíll make this boy cry,

e|-------3-3-3-3-2-2-2-2-2-2-|
B|-------3-3-3-3-3-3-3-3-3-3-|
G|-------0-0-0-0-2-2-2-2-2-2-|
D|-------0-0-0-0-0-0-0-0-0-0-|
A|-------2-2-2-2-0-0-0-0-0-0-|
E|--3-3--3-3-3-3-0-0-0-0-0-0-|
Oh, oh, oh.


e|-------0-0-0-0-0-0-0-0-0-0-|
B|-------0-0-0-0-1-1-1-1-1-1-|
G|-------0-0-0-0-0-0-0-0-0-0-|
D|-------2-2-2-2-2-2-2-2-2-2-|
A|-------2-2-2-2-3-3-3-3-3-3-|
E|--0-0--0-0-0-0-0-0-0-0-0-0-|
Radio,

e|-------3-3-3-3-2-2-2-2-2-2-|
B|-------3-3-3-3-3-3-3-3-3-3-|
G|-------0-0-0-0-2-2-2-2-2-2-|
D|-------0-0-0-0-0-0-0-0-0-0-|
A|-------2-2-2-2-0-0-0-0-0-0-|
E|--3-3--3-3-3-3-0-0-0-0-0-0-|
Bleed me a melody.

e|-------0-0-0-0-0-0-0-0-0-0-|
B|-------0-0-0-0-1-1-1-1-1-1-|
G|-------0-0-0-0-0-0-0-0-0-0-|
D|-------2-2-2-2-2-2-2-2-2-2-|
A|-------2-2-2-2-3-3-3-3-3-3-|
E|--0-0--0-0-0-0-0-0-0-0-0-0-|
Thatíll make him wonder why,

e|-------3-3-3-3-x-x-x-x-x-x-|
B|-------3-3-3-3-x-x-x-x-x-x-|
G|-------0-0-0-0-x-x-x-x-x-x-|
D|-------0-0-0-0-x-x-x-x-x-x-|
A|-------2-2-2-2-x-x-x-x-x-x-|
E|--3-3--3-3-3-3-x-x-x-x-x-x-|
He was so cold.

e|-0-0-0-0-2-2-2-2-3-3-3-3-3-3-3-3-|
B|-0-0-0-0-3-3-3-3-3-3-3-3-3-3-3-3-|
G|-0-0-0-0-2-2-2-2-0-0-0-0-0-0-0-0-|
D|-2-2-2-2-0-0-0-0-0-0-0-0-0-0-0-0-|
A|-2-2-2-2-0-0-0-0-2-2-2-2-2-2-2-2-|
E|-0-0-0-0-0-0-0-0-3-3-3-3-3-3-3-3-|
Radio, (Radio).

e|-0-0-0-0-2-2-2-2-3-3-3-3-3-3-3-3-|
B|-0-0-0-0-3-3-3-3-3-3-3-3-3-3-3-3-|
G|-0-0-0-0-2-2-2-2-0-0-0-0-0-0-0-0-|
D|-2-2-2-2-0-0-0-0-0-0-0-0-0-0-0-0-|
A|-2-2-2-2-0-0-0-0-2-2-2-2-2-2-2-2-|
E|-0-0-0-0-0-0-0-0-3-3-3-3-3-3-3-3-|
Radio, (Radio). Bleed me a melody.

e|-0-0-0-0-2-2-2-2-3-3-3-3-3-3-3-3-|
B|-0-0-0-0-3-3-3-3-3-3-3-3-3-3-3-3-|
G|-0-0-0-0-2-2-2-2-0-0-0-0-0-0-0-0-|
D|-2-2-2-2-0-0-0-0-0-0-0-0-0-0-0-0-|
A|-2-2-2-2-0-0-0-0-2-2-2-2-2-2-2-2-|
E|-0-0-0-0-0-0-0-0-3-3-3-3-3-3-3-3-|
Radio, Radio. 

e|-0-0-0-0-2-2-2-2-3-3-3-3-3-3-3-3-|
B|-0-0-0-0-3-3-3-3-3-3-3-3-3-3-3-3-|
G|-0-0-0-0-2-2-2-2-0-0-0-0-0-0-0-0-|
D|-2-2-2-2-0-0-0-0-0-0-0-0-0-0-0-0-|
A|-2-2-2-2-0-0-0-0-2-2-2-2-2-2-2-2-|
E|-0-0-0-0-0-0-0-0-3-3-3-3-3-3-3-3-|
Radio, (Bleed me a melody).

e|-0-0-0-0-2-2-2-2-3-3-3-3-3-3-3-3-|
B|-0-0-0-0-3-3-3-3-3-3-3-3-3-3-3-3-|
G|-0-0-0-0-2-2-2-2-0-0-0-0-0-0-0-0-|
D|-2-2-2-2-0-0-0-0-0-0-0-0-0-0-0-0-|
A|-2-2-2-2-0-0-0-0-2-2-2-2-2-2-2-2-|
E|-0-0-0-0-0-0-0-0-3-3-3-3-3-3-3-3-|
Radio,

e|-0-0-0-0-2-2-2-2-3-3-3-3-3-3-3-3-|
B|-0-0-0-0-3-3-3-3-3-3-3-3-3-3-3-3-|
G|-0-0-0-0-2-2-2-2-0-0-0-0-0-0-0-0-|
D|-2-2-2-2-0-0-0-0-0-0-0-0-0-0-0-0-|
A|-2-2-2-2-0-0-0-0-2-2-2-2-2-2-2-2-|
E|-0-0-0-0-0-0-0-0-3-3-3-3-3-3-3-3-|
That boyís got rhythm, cause he hums (Radio)

e|-0-0-0-0-2-2-2-2-3-3-3-3-3-3-3-3-|
B|-0-0-0-0-3-3-3-3-3-3-3-3-3-3-3-3-|
G|-0-0-0-0-2-2-2-2-0-0-0-0-0-0-0-0-|
D|-2-2-2-2-0-0-0-0-0-0-0-0-0-0-0-0-|
A|-2-2-2-2-0-0-0-0-2-2-2-2-2-2-2-2-|
E|-0-0-0-0-0-0-0-0-3-3-3-3-3-3-3-3-|
Everytime heís blue.

e|-0-0-0-0-2-2-2-2-3-3-3-3-3-3-3-3-|
B|-0-0-0-0-3-3-3-3-3-3-3-3-3-3-3-3-|
G|-0-0-0-0-2-2-2-2-0-0-0-0-0-0-0-0-|
D|-2-2-2-2-0-0-0-0-0-0-0-0-0-0-0-0-|
A|-2-2-2-2-0-0-0-0-2-2-2-2-2-2-2-2-|
E|-0-0-0-0-0-0-0-0-3-3-3-3-3-3-3-3-|
Radio, (Radio).

e|-0-0-0-0-2-2-2-2-3-3-3-3-3-3-3-3-|
B|-0-0-0-0-3-3-3-3-3-3-3-3-3-3-3-3-|
G|-0-0-0-0-2-2-2-2-0-0-0-0-0-0-0-0-|
D|-2-2-2-2-0-0-0-0-0-0-0-0-0-0-0-0-|
A|-2-2-2-2-0-0-0-0-2-2-2-2-2-2-2-2-|
E|-0-0-0-0-0-0-0-0-3-3-3-3-3-3-3-3-|
Radio...





Comments


Popular He Is We tabs & chords
All About Us 2 Chords
His Name 4 Chords
Kiss It All Better 1 Chords
Kiss It Better Chords
Kiss It Better 1 Chords
So Easy Chords
Everything You Do Ukulele
Forever And Ever Ukulele
Georgia Ukulele
Tell Me Ukulele


Song lyrics



↑ Back to top | Tablatures and chords are parodies/interpretations of the original songs. You may use it for private study, scholarship, research or language learning purposes only
© 2014 AZChords.com Contact us | Privacy policy | DMCA | Add/correct tabs | Request tabs | Top 50 tabs