>
 >
Pardon Me

Pardon Me Guitar Tabs

He Is We - Pardon Me chords, tabs, tablatures, lyrics

Guitar lessons | Add/correct | Request | Top 50 tabs Artists:  A B C D E F G H I J K L M N O P Q R S T U V W X Y Z 0-9

Pardon Me Guitar Tabs – He Is We

CD, Sheet music, Poster

Do you like Pardon Me? Share with your friends now
ChordsChords v2TabsUkulele
This is a really repetitive  song. Since I knew the song on piano, I thought I would set
it up to be able to have a guitar played along with it. I have the acoustic version of
Pardon Me, where its a guitar, bass, and drums playing along with the piano, and I also 
pretty much figured it out from ear too.

Intro/Verse: (its all picking) x3

e|----------------------------------------------------------------------|
B|--------------11------------------------------11----------------------|
G|--------x---------------------------------x---------------------------|
D|----11----------11---------------11---------11------------------------|
A|---9------------------ ---------x-------------------------------------|
E|--------------------------11------------------------------------------|

e|----------------------------------------------------------------------|
B|---------------11----------------------------------11-----------------|
G|----------x----------------------------------x------------------------|
D|-----11----------11------------------11----------11-------------------|
A|----x------------------------------x----------------------------------|
E|---9------------------------11----------------------------------------|

Post-Chorus 1: (still picking) x2

e|----------------------------------------------------------------------|
B|---------------11---------------------11------------------------------|
G|-----------x-----------------------x----------------------------------|
D|------11--------11---------11--------11-------------------------------|
A|---9---------------------x--------------------------------------------|
E|-----------------------9----------------------------------------------|

e|----------------------------------------------------------------------|
B|------------------11----------------------------11--------------------|
G|--------------x-----------------------------x-------------------------|
D|---------11-------11----------------11----------11--------------------|
A|------x--------------------------x------------------------------------|
E|---11------------------------9----------------------------------------|

Verse: (same as intro/verse)  x2

e|----------------------------------------------------------------------|
B|--------------11------------------------------11----------------------|
G|--------x---------------------------------x---------------------------|
D|----11----------11---------------11---------11------------------------|
A|---9------------------ ---------x-------------------------------------|
E|--------------------------11------------------------------------------|


e|----------------------------------------------------------------------|
B|---------------11----------------------------------11-----------------|
G|----------x----------------------------------x------------------------|
D|-----11----------11------------------11----------11-------------------|
A|----x------------------------------x----------------------------------|
E|---9------------------------11----------------------------------------|

Post-Chorus: x2

e|----------------------------------------------------------------------|
B|---------------11---------------------11------------------------------|
G|-----------x-----------------------x----------------------------------|
D|------11--------11---------11--------11-------------------------------|
A|---9---------------------x--------------------------------------------|
E|-----------------------9----------------------------------------------|

e|----------------------------------------------------------------------|
B|------------------11----------------------------11--------------------|
G|--------------x-----------------------------x-------------------------|
D|---------11-------11----------------11----------11--------------------|
A|------x--------------------------x------------------------------------|
E|---11------------------------9----------------------------------------|

Chorus: (now its staccato) on this part I thought itd be better to use staccato instead
of picking. Instead of the other chording style you can use power chords, which would
be F#, C#, Eb, C#. It repeats that throughout the chorus in the same order    x4  end it 
with a picking each string.

e|----------------------------------------------------------------------|
B|----------------------------------------------------------------------|
G|---11-----------------------------------------------------------------|
D|---11-[x4]-----11-[x4]---------- --13-[x4]--11-[x4]-------------------|
A|----9-----------11----------------- -13--------11---------------------|
E|------------------9--------------------11---------9-------------------|

e|----------------------------------------------------------------------|
B|----------------------------------------------------------------------|
G|--11-----------------------------------------11-----------------------|
D|--11-[x4]---11-[x4]------11-[x4]------11-----11-[x4]--11-[x4]--11-[x4]|
A|--9---------11-----------11-----------11------9-------11-------11-----|
E|------------9------------11-----------9---------------9--------11-----|

e|----------------------------------------------------------------------|
B|----------------------------------------------------------------------|
G|----------------------------------------------------------------------|
D|---11-----------------------------------------------------------------|
A|---11[x4]------------------------------------------------------------|
E|----9-----------------------------------------------------------------|

Verse: (go back to picking) x2

e|----------------------------------------------------------------------|
B|--------------11------------------------------11----------------------|
G|--------x---------------------------------x---------------------------|
D|----11----------11---------------11---------11------------------------|
A|---9------------------ ---------x-------------------------------------|
E|--------------------------11------------------------------------------|

e|----------------------------------------------------------------------|
B|---------------11----------------------------------11-----------------|
G|----------x----------------------------------x------------------------|
D|-----11----------11------------------11----------11-------------------|
A|----x------------------------------x----------------------------------|
E|---9------------------------11----------------------------------------|

Post-Chorus:
e|----------------------------------------------------------------------|
B|---------------11---------------------11------------------------------|
G|-----------x-----------------------x----------------------------------|
D|------11--------11---------11--------11-------------------------------|
A|---9---------------------x--------------------------------------------|
E|-----------------------9----------------------------------------------|

e|----------------------------------------------------------------------|
B|------------------11----------------------------11--------------------|
G|--------------x-----------------------------x-------------------------|
D|---------11-------11----------------11----------11--------------------|
A|------x--------------------------x------------------------------------|
E|---11------------------------9----------------------------------------|

Chorus: (back to staccato)

e|----------------------------------------------------------------------|
B|----------------------------------------------------------------------|
G|---11-----------------------------------------------------------------|
D|---11-[x4]-----11-[x4]---------- --13-[x4]--11-[x4]-------------------|
A|----9-----------11----------------- -13--------11---------------------|
E|------------------9--------------------11---------9-------------------|

e|----------------------------------------------------------------------|
B|----------------------------------------------------------------------|
G|--11-----------------------------------------11-----------------------|
D|--11-[x4]---11-[x4]------11-[x4]------11-----11-[x4]--11-[x4]--11-[x4]|
A|--9---------11-----------11-----------11------9-------11-------11-----|
E|------------9------------11-----------9---------------9--------11-----|

e|----------------------------------------------------------------------|
B|----------------------------------------------------------------------|
G|----------------------------------------------------------------------|
D|---11-----------------------------------------------------------------|
A|---11[x4]------------------------------------------------------------|
E|----9-----------------------------------------------------------------|

Bridge: (same as verses)
You pick this:

e|----------------------------------------------------------------------|
B|-------------11-------------------11---------------11-----------------|
G|----------x--------------------x-------------------x------------------|
D|------11--------11---------11------11-------11-----11-----------------|
A|----9----------------------x-----------------x------------------------|
E|--------------------------9---------------11--------------------------|

e|----------------------------------------------------------------------|
B|---------------11-----------------------------------------------------|
G|-----------x----------------------------------------------------------|
D|-------11------11-----------------------------------------------------|
A|-----x----------------------------------------------------------------|
E|----9-----------------------------------------------------------------|
let the last note ring out.


And you strum this: x7

e|----------------------------------------------------------------------|
B|----------------------------------------------------------------------|
G|---11-----------------------------------------------------------------|
D|---11[x4]---------11[x4]-------------11[x4]------------------------|
A|----9--------------11------------------11-----------------------------|
E|--------------------9------------------11-----------------------------|

Rest for 4 measures(if you cant count that, wait until she says Why do you do this to me.)
Play this for 12 measures, on the twelfth measure strum only once for each chord.

e|-----------------------------------------------------------------------|
B|-----------------------------------------------------------------------|
G|---11------------------------------------------------------------------|
D|---11-[x4]-----11-[x4]---------- --13-[x4]--11-[x4]--------------------|
A|----9---------- -11----------------- -13--------11---------------------|
E|------------------9--------------------11---------9--------------------|

e|----------------------------------------------------------------------|
B|----------------------------------------------------------------------|
G|--11-----------------------------------------11-----------------------|
D|--11-[x4]---11-[x4]------11-[x4]------11-----11-[x4]--11-[x4]--11-[x4]|
A|--9---------11-----------11-----------11------9-------11-------11-----|
E|------------9------------11-----------9---------------9--------11-----|

e|----------------------------------------------------------------------|
B|----------------------------------------------------------------------|
G|----------------------------------------------------------------------|
D|---11-----------------------------------------------------------------|
A|---11[x4]------------------------------------------------------------|
E|----9-----------------------------------------------------------------|





Comments


Popular He Is We tabs & chords
Fall Chords
Fall 1 Chords
Forever And Ever 2 Chords
His Name 1 Chords
Kiss It All Better 3 Chords
Our July In The Rain 1 Chords
Forever And Ever Tabs
Kiss It Better Ukulele
Light A Way Ukulele
The One About Indifference Ukulele


Song lyrics



↑ Back to top | Tablatures and chords are parodies/interpretations of the original songs. You may use it for private study, scholarship, research or language learning purposes only
© 2014 AZChords.com Contact us | Privacy policy | DMCA | Add/correct tabs | Request tabs | Top 50 tabs