» » »

He Is We, Light A Way Chords (ver.1)

Artists:  A B C D E F G H I J K L M N O P Q R S T U V W X Y Z # 

Light A Way Chords (ver.1)

He Is We Tabs
 Rating:
4.6/5 (11 votes)
Light A Way lessons Tabs too difficult? Try these video lessons and learn fast
                He Is We - Light A Way
Standard Tuning
Capo 5
Chords relative to capo.

Chords used:
      D       G      Bm       A
e|----2-------3-------2-------0---|
B|----3-------3-------3-------2---|
G|----2-------0-------4-------2---|
D|----0-------0-------4-------2---|
A|----0-------2-------2-------0---|
E|----x-------3-------x-------x---|


Intro:

e|---2---2---2---2---2---2---2---2-----------------------|
B|---3---3---3---3---3---3---3---3-----------------------|
G|-----2---2---2---2---2---2---2---2---------------------|
D|-------------------------------------------------------|
A|-------------------------------------------------------|
E|-------------------------------------------------------|

Verse: 
(The morning's here...)
     D               A               G               A
e|---2---2---2---2---0---0---0---0---3---3---3---3---0---0---0---0--|
B|---3---3---3---3---2---2---2---2---3---3---3---3---2---2---2---2--|
G|----2---2---2---2---2---2---2---2---0---0---0---0---2---2---2---2-|
D|------------------------------------------------------------------|
A|------------------------------------------------------------------|
E|------------------------------------------------------------------|

D                                     A
  The morning’s here, and we're still caught up in the night.
            G          A               D (Start strumming here)
The sky was clear, and everything felt right.
                           A
Our time is short, but I’m sure I’ll see you soon.
      G                           A (Stop & let ring)
We’ll take another walk along the bridge, and underneath the moon.

Interlude: D, A, G, A

D                   A                        G
  What a find, If I could I’d hit rewind and replay.
                       A
All the moments that I wished, I could’ve called you mine.

Pre-Chorus:
      
D     G       Bm A
  And tonight, I pray.

Chorus:

D
  Light a way, on my love.
G
  Light a way, from above.
Bm                       A
  Shine it down, lead me home,
        D
Back to him.


Verse 2:

D                         A
  A night away, and we’ve got a few to go.
         G                                   A
And I’ve mastered the art of missing, and my smile... 
        D                                A
Lacks a glow,  that you showed me how to shine that very night.
          G          A                       D
We were entwined, Oh God how I wish you were mine.

Pre-Chorus:
      
D     G       Bm A
  And tonight, I pray.


Chorus:

D
  Light a way, on my love.
G
  Light a way, from above.
Bm                       A
  Shine it down, lead me home,
                              D
Back to him, bring me back to him

Bridge:

D                             G
Now I lay me down to sleep, I pray my heart you choose to keep.
   Bm                       A
And if I die before I wake, all of me is yours to take.
D                         G
If I don’t see you again, It’d take all I have within.
Bm                          A                      D
Maybe I’ll just stay awake, I think I’ll just stay awake.


Final Chorus:


Light a way, on my love.
G
Light a way, from above.
Bm                      A
  Shine it down, lead me home,
                   D 
Light a way, on my love.
                  G
Light a way, from above.
        Bm             A
Shine it down, lead me home.

End on D
            
Submit corrections

comments powered by Disqus
↑ Back to top | He Is We Chords for Light A Way. Lyrics for acoustic guitar and electric guitar. Tablatures and chords are parodies/interpretations of the original songs. You may use it for private study, scholarship, research or language learning purposes only