>
 >
Kiss It Better 1

Kiss It Better 1 Guitar Tabs

He Is We - Kiss It Better 1 chords, tabs, tablatures, lyrics

Guitar lessons | Add/correct | Request | Top 50 tabs Artists:  A B C D E F G H I J K L M N O P Q R S T U V W X Y Z 0-9

Kiss It Better 1 Guitar Tabs – He Is We

CD, Sheet music, Poster

Do you like Kiss It Better 1? Share with your friends now
ChordsChords v2TabsTabs v2Ukulele
-----------------------------------------------------------------
Kiss It Better (Album Version) - He Is We.
-----------------------------------------------------------------

Tuning: Standard (EADGBe) 

Capo 2nd fret.

Strumming patterns are easily picked up by listening to the song.
I'm 100% sure this is how it's played. :)


Intro- x1
e|--0--------0--------0--------0------------|
B|--0--------0--------0--------0------------|
G|--9--------6--------4--------2------------|
D|--9--------6--------4--------2------------|
A|--7--------4--------2--------0------------|
E|--x--------x--------x--------x------------|

Verse- x2 (Single Strums)
"He sits in his cell.." - "And she cried.."
e|--0--------0--------0--------0------------|
B|--0--------0--------0--------0------------|
G|--9--------6--------4--------6------------|
D|--9--------6--------4--------6------------|
A|--7--------4--------2--------4------------|
E|--x--------x--------x--------x------------|


Chorus- x2
"Kiss it all better.." - "You didn't know"
e|--0--------0--------0--------0------------|
B|--0--------0--------0--------0------------|
G|--9--------6--------4--------2------------|
D|--9--------6--------4--------2------------|
A|--7--------4--------2--------0------------|
E|--x--------x--------x--------x------------|


{Post Chorus- x1}
e|--0--------0--------0--------0------------|
B|--0--------0--------0--------0------------|
G|--9--------6--------4--------6------------|
D|--9--------6--------4--------6------------|
A|--7--------4--------2--------4------------|
E|--x--------x--------x--------x------------|


Verse- x2 (Single Strums)
"Her hands are so cold.." - "And she cried.."
e|--0--------0--------0--------0------------|
B|--0--------0--------0--------0------------|
G|--9--------6--------4--------6------------|
D|--9--------6--------4--------6------------|
A|--7--------4--------2--------4------------|
E|--x--------x--------x--------x------------|

Chorus- x2
"Kiss it all better.." - "You didn't know.."
e|--0--------0--------0--------0------------|
B|--0--------0--------0--------0------------|
G|--9--------6--------4--------2------------|
D|--9--------6--------4--------2------------|
A|--7--------4--------2--------0------------|
E|--x--------x--------x--------x------------|

Bridge:
"Now he sits behind.." - "Who tore his world apart.."
e|--0--------0--------0--------0------------|
B|--0--------0--------0--------0------------|
G|--9--------6--------9--------6------------|
D|--9--------6--------9--------6------------|
A|--7--------4--------7--------4------------|
E|--x--------x--------x--------x------------|


"He holds on to the memory.." - "All it is, is a memory, heyhey.."
e|--0--------0--------0--------0------------|
B|--0--------0--------0--------0------------|
G|--9--------6--------9--------6------------|
D|--9--------6--------9--------6------------|
A|--7--------4--------7--------4------------|
E|--x--------x--------x--------x------------|

"He cried.." - "Stay with meeeee.." (x4)
e|-------0----------------0-----------------|
B|-------0----------------0-----------------|
G|-------9----------------6-----------------|
D|-------9----------------6-----------------|
A|-------7----------------4-----------------|
E|-------x----------------x-----------------|

"Kiss it all better, I'm not ready to go..."
e|--0---------------------------------------|
B|--0---------------------------------------|
G|--9---------------------------------------|
D|--9---------------------------------------|
A|--7---------------------------------------|
E|--x---------------------------------------|
 
"It's not your fault, love; you didn't know.."
e|--0-------0-------0--------0--------------|
B|--0-------0-------0--------0--------------|
G|--9-------6-------4--------2--------------|
D|--9-------6-------4--------2--------------|
A|--7-------4-------2--------0--------------|
E|--x-------x-------x--------x--------------|

"Stay with me, until I fall asleep.." - "Stay with me." (x2)
e|--0--------0--------0--------0-----------|
B|--0--------0--------0--------0-----------|
G|--9--------6--------4--------2-----------|
D|--9--------6--------4--------2-----------|
A|--7--------4--------2--------0-----------|
E|--x--------x--------x--------x-----------|

End on:
e|--0----|
B|--0----|
G|--9----|
D|--9----|
A|--7----|
E|--x----|

| /  slide up
| \  slide down
| h  hammer-on
| p  pull-off
| ~  vibrato
| +  harmonic
| x  Mute note





Comments


Popular He Is We tabs & chords
A Mess It Grows Chords
Breathe Chords
Everything You Do 1 Chords
Happily Ever After 4 Chords
His Name Chords
Love Life 1 Chords
All About Us Tabs
Happily Ever After 1 Tabs
Give It All Ukulele
Radio Ukulele


Song lyrics



↑ Back to top | Tablatures and chords are parodies/interpretations of the original songs. You may use it for private study, scholarship, research or language learning purposes only
© 2014 AZChords.com Contact us | Privacy policy | DMCA | Add/correct tabs | Request tabs | Top 50 tabs