» » »

He Is We, His Name Tabs (ver.2)

Artists:  A B C D E F G H I J K L M N O P Q R S T U V W X Y Z # 

His Name Tabs (ver.2)

He Is We Tabs
4.3/5 (6 votes)
His Name lessons Tabs too difficult? Try these video lessons and learn fast
                This is my first time doing this so i hope it sounds good. im not to sure about the 
pattern so you can play around with it. i also didnt know the hammer on in the verse, but 
is how i play it and itsounds farely similar. The tuning is standerd e a d g b e enjoy...

e |------0-----------0-------------0--------------0----------|
b |-------0-----------0-------------0--------------0---------|
g |--6-------6---8--------8---6---------6----6---------6-----|   x4
d |---6-----------9------------7--------------7--------------|
a |-4--4---4-------------------------------------------------|
e |------------7---7----7---5----5----5----5----5----5-------|

e |-------0-------------0-------|
B |--------0-------------0------|
g |---6--------6---8---------8--|
d |----6------------9-----------|
a |-4---4----4------------------|
e |--------------7----7----7----|

e |-0---0--0-0--0-0-0-0-0-0-0---0--0-0--0-0-0-0-0-0-|
b |-0---0--0-0--0-0-0-0-0-0-0---0--0-0--0-0-0-0-0-0-|
g |-6---6--6-6--6-6-6-6-6-6-9---9--9-9--8-8-8-8-8-8-|    x3
d |-6---6--6-6--7-7-7-7-7-7-9---9--9-9--9-9-9-9-9-9-|
a |-4---4--4-4--7-7-7-7-7-7-7---7--7-7--9-9-9-9-9-9-|
e |-------------5-5-5-5-5-5-------------7-7-7-7-7-7-|

e |-0-0-0-0-0-0-0-0-0-|
b |-0-0-0-0-0-0-0-0-0-|
g |-6-6-6-6-6-6-6-6-8-|
d |-7-7-7-7-7-7-7-7-9-|
a |-7-7-7-7-7-7-7-7-9-|
e |-5-5-5-5-5-5-5-5-7-|

		Repet verse and chorus two more times till end
Submit corrections

comments powered by Disqus
↑ Back to top | He Is We Tabs for His Name. Lyrics for acoustic guitar and electric guitar. Tablatures and chords are parodies/interpretations of the original songs. You may use it for private study, scholarship, research or language learning purposes only