» » »

He Is We, Happily Ever After Chords (ver.3)

Artists:  A B C D E F G H I J K L M N O P Q R S T U V W X Y Z # 

Happily Ever After Chords (ver.3)

He Is We Tabs
Rating:
4/5 (3 votes)
Happily Ever After lessons Tabs too difficult? Try these video lessons and learn fast
                Hi guys sorry if the chord names are off,
this is my first tab.
Please correct this yourselves.

Tuning and some chords credit to the previous submitted tab~



Guitar 1
basically OPEN CHORDS:
C#m7 - x42400
B(addE) - x24400
Asus2- x02400
E5/B- x22400
C#5 - X46600



Verse and Chorus Chords:    
          C#m7                              B(addE)                          Asus2          E5/B
Let me    riddle you a ditty, it's          just an itty bitty little        thing on my    mind.
About a   boy and a girl, trying to         take on the world, one           kiss at a      time.
Now the   funny thing about it, ain't a     story without it, but the        story is       mine.
And I     wish you could                    say, that it                     ended just     fine.


Refrain:
   Asus2         E5/B        C#m7     B(addE)
          We     all want to know,              how it ends.




Chorus:
  C#m7              Asus2               E5/B                B(addE)
   Oh, happily      ever after,              wouldn't you   know, wouldn't you know.
   Oh,              skip to the ending,      who'd like to  know, I'd like to know.
      Author        of the moment,           can you        tell me,

   Asus2     C#m7       B(addE) 
   do I      end up,    do I end up happy?

Instrumental: C#5 - B(addE) - Asus2 - E5/B 


Verse 2 progression's the same as Verse 1's:
Inhale, breathe steady, exhale, like you're ready, if you're ready or not.
Just a boy and a girl trying to take on the world, and we want to get caught.
In the middle of a very happy ending, let's see what we've got, let's give it a shot.
Let's give it a shot.

Refrain:
We all want to know, how it ends.

(repeat Chorus)

Instrumental: C#5 - B(addE) - Asus2 - E5/B 




Bridge and 'to fade':
* (it's still Capo 2 so "9"=11th fret and so on)

   We all have          a story             to tell...
      Whether         we whisper            or yell...
   We all have          a story             of adolescence and all its glory...
   We all have          a story             to tell...    
e|-----------------------------------------------------------------------------------|
B|-----------------------------------------------------------------------------------|
G|----9--(8x)--------------11--(8x)------------9--(16X)------------------------------|
D|----9--------------------9-------------------7-------------------------------------|
A|----11-------------------9-------------------7-------------------------------------|
E|-----------------------------------------------------------------------------------|
(repeat Chorus)

'to fade':
We all have a story to tell.
We all have a story to tell.
We all have a story to tell.
We all have a story to tell.


IF you'd like to strum strings e, B and G in a non-sustained rendition, you could 
play it like this:

   We all have          a story             to tell...
      Whether         we whisper            or yell...
   We all have          a story             of adolescence and all its glory...
   We all have          a story             to tell...  
e|----7--(8x)--------------7--(8x)--------------5--(8x)------------------------------|
B|----9--------------------7--------------------5------------------------------------|
G|----9--------------------8--------------------6------------------------------------|
D|----9--------------------9--------------------7------------------------------------|
A|----7--------------------9--------------------7------------------------------------|
E|----7--------------------7--------------------5------------------------------------|
(repeat Chorus)
            

comments powered by Disqus
↑ Back to top | He Is We Chords for Happily Ever After. Lyrics for acoustic guitar and electric guitar. Tablatures and chords are parodies/interpretations of the original songs. You may use it for private study, scholarship, research or language learning purposes only