» » »

Happily Ever After Tabs (ver.2)

Artists:  A B C D E F G H I J K L M N O P Q R S T U V W X Y Z # 

Happily Ever After Tabs (ver.2)

He Is We
Rating:
0/5 (0 votes)

Hard to play? Try these video lessons and learn fast.
                -----------------------------------------------------------------------------
                             Happily Ever After- He is We
-----------------------------------------------------------------------------
NO CAPO. Every live version I've seen does not include a capo thus why my tab does not 
dang well with this tab.


Tuning: standard

Intro/Verse chords
e|------------------------------------------------------------------------|
B|------------------------------------------------------------------------|
G|----4------4-----4-----4------------------------------------------------|
D|----2------4-----2-----2------------------------------------------------|
A|----4------2-----0-----2------------------------------------------------|
E|------------------------------------------------------------------------|

Pre-chorus
e|---2-------4-------0----------------------------------------------------|
B|---2-------5-------0----------------------------------------------------|
G|---4-------4-------2----------------------------------------------------|
D|---4-------6-------2----------------------------------------------------|
A|---2-------4-------0----------------------------------------------------|
E|-------------------x----------------------------------------------------|

Chorus
e|---4------0-------0------2----------------------------------------------|
B|---5------0-------0------2----------------------------------------------|
G|---4------2-------1------4----------------------------------------------|
D|---6------2-------2------4----------------------------------------------|
A|---4------0-------2------2----------------------------------------------|
E|----------0-------0-----------------------------------------------------|

Bridge
e|-----------------(7)----------------------------------------------------|
B|-----------------(7)----------------------------------------------------|
G|---9------9-------9-----------------------------------------------------|
D|---9------9-------9-----------------------------------------------------|
A|---7------x-------7-----------------------------------------------------|
E|----------9-------7-----------------------------------------------------|

Intro  X5
Pre-chorus X1
Chorus X4
Verse (with straight eighth notes)
then
Verse X4
Pre-chorus X1
Chorus X4
Bridge X4
Chorus X4 (play each chord once eventually changing to normal rhythm)
Bridge til it ends
            
Hard to play? Try these video lessons and learn fast. | Correct




comments powered by Disqus
↑ Back to top | Tablatures and chords are parodies/interpretations of the original songs. You may use it for private study, scholarship, research or language learning purposes only