» » »

He Is We, Happily Ever After Tabs (ver.1)

Artists:  A B C D E F G H I J K L M N O P Q R S T U V W X Y Z # 

Happily Ever After Tabs (ver.1)

He Is We Tabs
Rating:
5/5 (4 votes)
Happily Ever After lessons Tabs too difficult? Try these video lessons and learn fast
                Band: He Is We
This is exactly how He Is We plays this song on the purevolume acoustic
video. 

The video also has the tab in the video too, along with lyrics.

TUNING: Both Guitar- Drop D and 1/2 step down (DbAbDbGbBbEb same as 
                     C#G#C#F#BbEb)

Intro/ Verse
GUITAR 1
E|-----0----0----0----0----|
B|-----0----0----0----0----| To start the song Trevor
G|-----4----4----4----4----| does a single pick of the
D|-----2----4----2----2----| A string on the 4th fret,
A|-(4)-4----2----0----2----| that is the (4).
D|-----x----x----x----2----|

GUITAR 2
E|--0---0---0---0--|
B|-0-0-0-0-0-0-0-0-|
G|1---2---2---8----|
D|-----------------|
A|-----------------|
D|-----------------|

Bridge
GUITAR 1
E|----0----0----0----0----|
B|----0----0----0----0----|
G|----4----6----2----2----|
D|----4----6----2----2----|
A|----2----4----0----0----|
D|----x----x----x----x----|

GUITAR 2
E|--0--0--0--0--|
B|--0--0--0--0--|
G|--8--9--9--13-|
D|--------------|
A|--------------|
D|--------------|

Chorus
GUITAR 1
E|----0----0----0----0----|
B|----0----0----0----0----|
G|----6----2----1----4----|
D|----6----2----2----4----|
A|----4----0----2----2----|
D|----x----x----x----x----|

GUITAR 2
E|------7-------7--------7-------7----|
B|----7---7---7---7----7---7---7---7--|
G|--9-------9-------9--------8--------|
D|------------------------------------|
A|------------------------------------|
D|------------------------------------|


Fill after Chorus
GUITAR 1
E|----0----0----0----0----|
B|----0----0----0----0----|
G|----4----4----4----4----|
D|----2----2----2----4----|
A|----4----0----2----2----|
D|----x----x----2----x----|

GUITAR 2
E|-----7-------0-------0-------0---0-|
B|---9-------9-------7-------7---7---|
G|-9-------9-------9-------9---8-----|
D|-----------------------------------|
A|-----------------------------------|
D|-----------------------------------|

Breakdown
GUITAR 1
E|----0----0----0----0----|
B|----0----0----0----0----|
G|----9----9----9----9----|
D|----9----9----9----9----|
A|----7----x----7----7----|
D|----x----9----7----7----|

GUITAR 2
E|---12-----12-----12-----12------12------12-----12-----12---|     |-12-|
B|-12--12-12--12-12--12-12--12--12--12--12--12-12--12-12--12-|     |-12-|
G|9------9------9------8-----------------------------8-------| End |--9-|
D|----------------------------11------11------9--------------|with |--9-|
A|-----------------------------------------------------------|     |----|
D|-----------------------------------------------------------|     |----|

ORDER
Intro/ Verse x 6 (only guitar 1)
Bridge x 1 (only guitar 1)
Chorus x 4 (guitar 2 join for rest of song)
Fill x 1
Intro/ Verse x 4
Bridge x 1
Chorus x 4
Breakdown x 5
Chorus x 4
Breakdown x 5

Please rate/ comment!
            
Submit corrections

comments powered by Disqus
↑ Back to top | He Is We Tabs for Happily Ever After. Lyrics for acoustic guitar and electric guitar. Tablatures and chords are parodies/interpretations of the original songs. You may use it for private study, scholarship, research or language learning purposes only