» » »

Breathe Tabs (ver.1)

Artists:  A B C D E F G H I J K L M N O P Q R S T U V W X Y Z # 

Breathe Tabs (ver.1)

He Is We
Rating:
0/5 (0 votes)

Hard to play? Try these video lessons and learn fast.
                I wanted to help everyone out and tab this song, sense i couldn't find a tab for 
it anywhere. i used these videos to help me



Here is a video of me playing the song


This Song is 100 percent accurate,but if you see 
any mistakes with the tab, just tell me and ill fix it (:
Feel Free to Rate,Comment,and message me too.
This song is in Drop D Too!

Intro/Verse: Played 3 times
    
E---------------------------------------------------|
B---3-(x3)--5-(x2)--3-(x3)--3-(x3)--5-(x2)--3-(x3)--|
G---2-------2-------2-------2-------2-------2-------|
D---------------------------------------------------|
A---------------------------------------------------|
D---4-------4-------4-------4-------5-------4-------|
                                                       
E---------------------------------------------------|
B--10-(x8)---------5-(x8)---------------------------|
G---7--------------7--------------------------------|
D---------------------------------------------------|
A---------------------------------------------------|
D---9--------------7--------------------------------|


Pre-Chorus: Played 1 time. Is not played after the second verse       
E------------------5-------5------------------------|
B--10------7-------8--(8)--7--(4)--7--(4)-----------|
G--7-------7-------7-------7-------7----------------|
D------------------5-------5-------0----------------|
A------------------5-------5-------0----------------|
D--9-------7-------5-------5-------7----------------|


Chorus: Played 2 Times
E---------------------------------------------------|
B--10--(8)--10--(4)--7--(4)---7-(8)----5-(8)--------|
G--7--------7--------7--------7--------7------------|
D--5--------0--------0--------0--------0------------|
A--5--------0--------0--------0--------0------------|
D--5--------0--------0--------9--------7------------|


Bridge/Bridge Down:
E---------------------------------------------------|
B--7--(12)--10--(4)--10--(12)--10--(4)--------------|
G--7---------9-------11---------9-------------------| 2 Times
D--0---------0--------0---------0-------------------|
A--0---------0--------0---------0-------------------|
D--9--------11-------12--------11-------------------|

E---------------------------------------------------|
B--10-------10-------7--------7--------5--(8)-------|
G--7--------7--------7--------7--------7------------|
D--5--------0--------0--------0--------0------------|
A--5--------0--------0--------0--------0------------|
D--5--------0--------0--------9--------7------------|

Chorus: Played 2 Times
E---------------------------------------------------|
B--10--(8)--10--(4)--7--(4)---7-(8)----5-(8)--------|
G--7--------7--------7--------7--------7------------|
D--5--------0--------0--------0--------0------------|
A--5--------0--------0--------0--------0------------|
D--5--------0--------0--------9--------7------------|

Chorus: 3rd Time
E---------------------------------------------------|
B--10-------10-------7--------7--------5------------|
G--7--------7--------7--------7--------7------------|
D--5--------0--------0--------0--------0------------|
A--5--------0--------0--------0--------0------------|
D--5--------0--------0--------9--------7------------|

Intro
Verse
Pre-Chorus
Chorus
Verse
Chorus
Breakdown
Chorus
            
Hard to play? Try these video lessons and learn fast. | Correct




comments powered by Disqus
↑ Back to top | Tablatures and chords are parodies/interpretations of the original songs. You may use it for private study, scholarship, research or language learning purposes only